» » »

Vulgaires Machins, La Chasse Est Ouverte Tabs (ver.1)

Artists:  A B C D E F G H I J K L M N O P Q R S T U V W X Y Z # 

La Chasse Est Ouverte Tabs (ver.1)

Vulgaires Machins Tabs
 Rating:
4/5 (4 votes)
La Chasse Est Ouverte lessons Tabs too difficult? Try these video lessons and learn fast
1
                
Standard Tuning

INTRO:

Guitar 1:

   G  D# C/G F
|---------------|
|---------------|
|-----8---5-----|
|--5--8---5--3--|
|--5--6---3--3--|
|--3--6---3--1--|

Guitar 2:

   D  D#  C  F
|----------------|
|--7--8---5------|
|--7--8---5--10--|
|--7--8---5--10--|
|--5--6---3--8---|
|----------------|

VERSE:

   G  D# A#    G  D# A# F  G
|-----------|-----------------|
|-----------|-----------------|
|-----8-----|-----8-----------|
|--5--8--8--|--5--8--8--3--5--|
|--5--6--8--|--5--6--8--3--5--|
|--3--6--6--|--3--6--6--1--3--|

Rebel de fond d’ cave 
tu critiques tu gueules de ton estrade 
Tu déformes 
Sans connaître le fond et moins la forme 
L’exception (pm here)
Qui a dans son miroir la perfection 
La raison 
Ch'pas le chien soumis de ta rébellion 

CHORUS:

   G  A# D# A/E
|---------------|
|-----------10--|
|--------8--9---|
|--5--8--8--7---|
|--5--8--6--7---|
|--3--6--6------|

Qu’es-ce qu’y faut écrire aujourd’hui...
...Qui es-ce qu’on met au régime et pour qui ? 

INTRO again
VERSE

Maigre anarchiste 
Dessine-moi un monde un peu moins triste 
L’an*lyste (pm here)
on se croirait d’ une tribune de sportifs 
de mongoles 
c’est quoi le score du fan contre l’artiste 

CHORUS

prenez-nous pour des imbéciles...
...d’ironie nous habite. 

Then...

   D# D C/G F/C E/B C      D# D C/G A#
|-----------------------|--------------|
|-----------------------|--------------|
|--8--7--5---10--9------|--8--7--5-----|
|--8--7--5---10--9--10--|--8--7--5--8--|
|--6--5--3---8---7--10--|--6--5--3--8--|
|--6--5--3---8---7--8---|--6--5--3--6--|

Guitar 1 starts on 4th rep of Guitar 2:

   G  D# C/G F
|----------------|
|----------------|
|-----8---5--10--|
|--5--8---5--10--|
|--5--6---3--8---|
|--3--6---3------|

Guitar 2:

   D               8x
|-------------------|
|-(7)---------(5-6)-|
|-(7)-7-6-5---------|
|-(7)-------8-------|
|-------------------|
|-------------------|

VERSE

Un autre messie...

CHORUS

J’t’écoeuré de t’entendre ...
...faire une maine comme un héros 

ENDING:

Guitar 1 starts on the second rep. of Guitar 2:

  C/G G 
|--------|
|--------|
|--5-----|
|--5--5--|
|--3--5--|
|--3--3--|


Guitar 2 palm mutes 2 first reps:
                                    3x
|------------------------------------|
|------------------------------------|
|------------------------------------|
|---9--9--9---8--8--8--8-8-8--7-7-7--|
|-10-10-10--10-10-10-----------------|
|---------------------8-8-8--8-8-8---|

-------------------------------------------------
I'm getting better :D

Paul G
            
Submit corrections

comments powered by Disqus
↑ Back to top | Vulgaires Machins Tabs for La Chasse Est Ouverte. Lyrics for acoustic guitar and electric guitar. 1 Tablatures and chords are parodies/interpretations of the original songs. You may use it for private study, scholarship, research or language learning purposes only