>
 >
La Ballade Des ÉGoistes

La Ballade Des ÉGoistes Guitar Tabs

Vulgaires Machins - La Ballade Des ÉGoistes chords, tabs, tablatures, lyrics

Guitar lessons | Add/correct | Request | Top 50 tabs Artists:  A B C D E F G H I J K L M N O P Q R S T U V W X Y Z 0-9

La Ballade Des ÉGoistes Guitar Tabs – Vulgaires Machins

CD, Sheet music, Poster

Do you like La Ballade Des ÉGoistes? Share with your friends now
Tabs
Intro

(clean)(6x)
e-|----------------------------------------|
B-|----------------------------------------|
G-|---55555-88-----------------------------|
D-|---55555-88-55-6-6-6-6-6--8-8-8-8-8-----|
A-|---33333-66-55-6-6-6-6-6--8-8-8-8-8-----|
E-|------------33-4-4-4-4-4--6-6-6-6-6-----|

Guitar 1 (distortion)

(2x)
e-|----------------------------------------|
B-|----------------------------------------|
G-|---55555-88-----------------------------|
D-|---55555-88-55--6-6-6-6-6--8-8-8-8-8----|
A-|---33333-66-55--6-6-6-6-6--8-8-8-8-8----|
E-|------------33--4-4-4-4-4--6-6-6-6-6----|

(4x)
e-|----------------------------------------|
B-|----------------------------------------|
G-|---55555-88-----------------------------|
D-|---55555-88-55--6-6-6-6-6---5-5-5-5-5---|
A-|---33333-66-55--6-6-6-6-6---5-5-5-5-5---|
E-|------------33--4-4-4-4-4---3-3-3-3-3---|

(1x)
e-|-----------------------------------------------------------|
B-|-----------------------------------------------------------|
G-|-----------------------------------------------------------|
D-|--3--3-3--3-3-3-6--6-6--6-6-6-8--8-8-8--8-8-9--9-9--9-9-9--|
A-|--3--3-3--3-3-3-6--6-6--6-6-6-8--8-8-8--8-8-9--9-9--9-9-9--|
E-|--1--1-1--1-1-1-4--4-4--4-4-4-6--6-6-6--6-6-7--7-7--7-7-7--|

(2x)
e-|-----------------------------------|
B-|-----------------------------------|
G-|-----------------------------------|
D-|--3-3-6-6-8-8-9-9-8-8-6-6-8-8-6-6--|
A-|--3-3-6-6-8-8-9-9-8-8-6-6-8-8-6-6--|
E-|--1-1-4-4-6-6-7-7-6-6-4-4-6-6-4-4--|


(1x muter)
e-|-----------------------------------|
B-|-----------------------------------|
G-|-----------------------------------|
D-|--3-3-6-6-8-8-9-9-8-8-6-6-8-8-6-6--|
A-|--3-3-6-6-8-8-9-9-8-8-6-6-8-8-6-6--|
E-|--1-1-4-4-6-6-7-7-6-6-4-4-6-6-4-4--|


(1x muter)                          |          (pas muter)                |

e-|---------------------------------|-------------------------------------|
B-|---------------------------------|-------------------------------------|
G-|---------------------------------|-------------------------------------|
D-|--3-3-6-6-8-8-9-9-8-8-6-6-8-8-9-9|-10--10-10--10-10--10--10-10--10-10--|
A-|--3-3-6-6-8-8-9-9-8-8-6-6-8-8-9-9|-10--10-10--10-10--10--10-10--10-10--|
E-|--1-1-4-4-6-6-7-7-6-6-4-4-6-6-7-7|--8---8--8---8--8---8---8--8---8--8--|

(1x)
e-|----------------------------------------------|
B-|----------------------------------------------|
G-|---55555-88-----------------------------------|
D-|---55555-88-55--6-6-6-6-6---8-8-8-8-8--1010---|
A-|---33333-66-55--6-6-6-6-6---8-8-8-8-8--1010---|
E-|------------33--4-4-4-4-4---6-6-6-6-6---8-8---|


1er partie du solo
(x8)tres vite        
e-|-------------------------|
B-|-------------------------|
G-|--55555555555--77-88-77--|
D-|-------------------------|
A-|-------------------------|
E-|-------------------------|
                          

Après la 5e fois, Marie-Ève embarque  derrière avec:

(10x) elle le joue quasiment jusqu'à la fin

e-|---------------|
B-|---------------|
G-|--5--8---------|
D-|--5--8-8-6--8--|
A-|--3--6-8-6--8--|
E-|-------6-4--6--|

Après la 1er partie du solo joué 8 fois et demi:

2e partie du solo: 


apres ses 8x de la premiere partie du solo guillaume fais sa:
e-|-----------------------------------------|
B-|--9--8--9--8--99-8--11-9-8-9-11-9-8-9-8--|
G-|-----------------------------------------|
D-|-----------------------------------------|
A-|-----------------------------------------|
E-|-----------------------------------------|

3e partie du solo 
(Avec un wah-wah)
          
e-|--9-(6x)--11-(6x)-13-(6x)-11-(6x)-9-(6x)-11-(6x)-8--11--8-8---------|
B-|--10------12------14------12------10-----12------9---9--9-9---------|
G-|--------------------------------------------------------------------|
D-|--------------------------------------------------------------------|
A-|--------------------------------------------------------------------|
E-|--------------------------------------------------------------------|



Alors (4x)
Pour Marie:

e-|---------------|
B-|---------------|
G-|--5--8---------|
D-|--5--8-5-6--8--|
A-|--3--6-5-6--8--|
E-|-------3-4--6--|

et les deux guitares finissent avec:

e-|-----------------------------------------|
B-|-----------------------------------------|
G-|-----------------------------------------|
D-|--3-3--3--6-6--6-6--6--8-8--8-8--8--9----|
A-|--3-3--3--6-6--6-6--6--8-8--8-8--8--9~~~~|
E-|--1-1--1--4-4--4-4--4--6-6--6-6--6--7----|
    (P.M.)       (P.M.)       (P.M.)

et

(clean)
e-|--------------------------------------|
B-|--------------------------------------|
G-|---55555-88---------------------------|
D-|---55555-88-55-6-6-6-6-6--8-8-8-8-8---|
A-|---33333-66-55-6-6-6-6-6--8-8-8-8-8---|
E-|------------33-4-4-4-4-4--6-6-6-6-6---|


pour conclure:

(distortion)
e-|--------|
B-|--------|
G-|--------|
D-|--8-10--|
A-|--8-10--|
E-|--6--8--|





Comments


Popular Vulgaires Machins tabs & chords
La Ballade Des Egoistes Bass Tabs
Papopinage Bass Tabs
Je Chante Pour Les Sourds 1 Chords
Aimer Le Mal 1 Tabs
Compter Les Corps Tabs
La Rue DéRagon Tabs
Le Ciel Est Vide Tabs
Pistache Tabs
Un Vote De Moins Tabs
Triple Meutre Et Suicide Rate Ukulele


Song lyrics



↑ Back to top | Tablatures and chords are parodies/interpretations of the original songs. You may use it for private study, scholarship, research or language learning purposes only
© 2014 AZChords.com Contact us | Privacy policy | DMCA | Add/correct tabs | Request tabs | Top 50 tabs