» » »

Vulgaires Machins, Fausse Route Tabs (ver.1)

Artists:  A B C D E F G H I J K L M N O P Q R S T U V W X Y Z # 

Fausse Route Tabs (ver.1)

Vulgaires Machins Tabs
 Rating:
4/5 (4 votes)
Fausse Route lessons Tabs too difficult? Try these video lessons and learn fast
                
Standard Tuning

INTRO:

Guitar 1:

 D# A# D# A#   D     G
|---------------------------|
|---------------------------|
|--8---8-------7-7-7--------|
|--8-8-8-8-8-8-7-7-7-5-5-5--|
|--6-8-6-8-8-8-5-5-5-5-5-5--|
|----6---6-6-6-------3-3-3--|

 D# A# D G
|-----------|
|-----------|
|--8---7----|
|--8-8-7-5--|
|--6-8-5-5--|
|----6---3--|

Guitar 2:

 D# A# D G
|-----------|
|-----------|
|--8---7----|
|--8-8-7-5--|
|--6-8-5-5--|
|----6---3--|
pm...........

Solo bit:

|----------------------------------|
|----------------------------------|
|*---------------------------------|
|*----7-8----7-8--10b11-8-7----7-8-|
|--10-----10----------------10-----|
|----------------------------------|

                                 2x
|---------------------------------|
|---------------------------------|
|------------------------------7-*|
|-10b11-8-7----8-10b11-8-10b11---*|
|-----------10--------------------|
|---------------------------------|

VERSE:      CHORUS:

 D# A# D G 2x D# A# D D# F  F# A#
|-----------|---------------------|
|-----------|---------------------|
|--8---7----|--8----7-8--10-11----|
|--8-8-7-5--|--8-8--7-8--10-11-8--|
|--6-8-5-5--|--6-8--5-6--8--9--8--|
|----6---3--|----6-------------6--|
                               .
Je vais bifurquer ...
...J'ajouterai à ma liste 

Me sortir du jeu et tendre la main...
...Qui ne mène à rien 

INTRO again
VERSE/CHORUS again

Pour se questionner...
...éthique ils t'endorment
 
et te dictent de ...
... sert à rien 

Guitar 1 SOLO:

         4x                       6x
|---------|-------------|----------|-----------|
|---------|-------------|----------|-10--------|
|*8-8-7--*|---5-7-8-7-5-|*8-7-8-10*|----10-8-7-|
|*------8*|-8-----------|*--------*|-----------|
|---------|-------------|----------|-----------|
|---------|-------------|----------|-----------|

Guitar 2 plays this during solo:

  D# A#
|-------|
|-------|
|--8----|
|--8-8--|
|--6-8--|
|----6--|
     .

VERSE/CHORUS again

ENDING:

Guitar 2 plays verse 1x then chorus
While Guitar 1 plays this:

 D# F  F#  G   A  A#   F       F#      A#
|--------------------|---------------------|
|--------------------|---------------------|
|-8-10-11--12--14-15-|-10-10---11-11---15--|
|-8-10-11--12--14-15-|-10---10-11---11-15--|
|-6-8--9---10--12-13-|-8-------9-------13--|
|--------------------|---------------------|

-------------------------------------------------

Paul G
            
Submit corrections

comments powered by Disqus
↑ Back to top | Vulgaires Machins Tabs for Fausse Route. Lyrics for acoustic guitar and electric guitar. Tablatures and chords are parodies/interpretations of the original songs. You may use it for private study, scholarship, research or language learning purposes only