» » »

Eric St-Pierre Tabs (ver.1)

Artists:  A B C D E F G H I J K L M N O P Q R S T U V W X Y Z # 

Eric St-Pierre Tabs (ver.1)

Vulgaires Machins
Rating:
0/5 (0 votes)

Hard to play? Try these video lessons and learn fast.
                e-----------------------------------
B-----------------------------------
G------------------------------------
D---------0-0-2-4-5-5-4-2-0-0--------
A-0-0-2-4----------------------4-2---
E-------------------------------------

e-----------------------------------
B-----------------------------------
G------------------------------------
D---------0-0-2-4-5-5-4-2-0-0--------
A-0-0-2-4----------------------4-2---
E-------------------------------------

e-----------------------------------
B-----------------------------------
G------------------------------------
D---------0-0-2-4-5-5-4-2-0-0--------
A-0-0-2-4----------------------4-2---
E-------------------------------------
            
Hard to play? Try these video lessons and learn fast. | Correct




comments powered by Disqus
↑ Back to top | Tablatures and chords are parodies/interpretations of the original songs. You may use it for private study, scholarship, research or language learning purposes only