» » »

Vulgaires Machins, Dieu Se Pique Tabs (ver.3)

Artists:  A B C D E F G H I J K L M N O P Q R S T U V W X Y Z # 

Dieu Se Pique Tabs (ver.3)

Vulgaires Machins Tabs
Rating:
0/5 (0 votes)
Dieu Se Pique lessons Tabs too difficult? Try these video lessons and learn fast
                Dieu se pique
Vulgaires machins
Tabbé par PunkQC


intro a: x2
e|-----------------------------------------------------------------|
B|-----------------------------------------------------------------|
G|-------------------------7---4~--------------------555-5-4-4-----|
D|-------5-2-------2/3/5-------------333-3-----3---------------5---|
A|-333-3-----3-----------------------------3-3---------------------|
E|-----------------------------------------------------------------|
  p.m..........                     ..............................

 intro b: x1
e|-----------------------------------------------------------------|
B|-----------------------------------------------------------------|
G|-------------------------7---4~-------------------/5---5-4-4-----|
D|-------5-2-------2/3/5-------------333-3-----3---------------5---|
A|-333-3-----3-----------------------------3-3---------------------|
E|-----------------------------------------------------------------|
  p.m...........                     ...........


  bridge: x2
e|-------------------------------------------|
B|-------------------------------------------|
G|5/9999---5/1010---7/1111--/12-/14-/16-/17--|
D|5/9999---5/1010---7/1111--/12-/14-/16-/17--|
A|3/7777---3/8888---5/9999--/10-/12-/14-/15--|
E|-------------------------------------------|


  Couplet: x2 -> ça s'dit des belles choses quand y'a d'la visite
                 ça s'envoie chier quans ça s'complique
                 ça plit les genoux ça essaie d'aller plus vite
                 comme un oiseau qui fonce dans vite
e|----------------------------------------------------------------|
B|----------------------------------------------------------------|
G|----------------10--------------7-------------------------------|
D|10--------------10--------------7---------------5-------9-------|
A|10--------------8-8-8-8-8-8-8-8-5-5-5-5-5-5-5-5-5-------9-------|
E|8-8-8-8-8-8-8-8---------------------------------3-3-3-3-7-7-7-7-|
    p.m..........   .............   .............   .....   ..... 



  Couplet: x2 -> l`été y`on chaud l'hiver y gèlent
                 y'arrosent le gazon pis y peltent
                 y triment la haie y shoot les parazites
                 y'ont des vies plates mais y s'trouvent ch-
e|----------------------------------------------------------------|
B|----------------------------------------------------------------|
G|----------------10101010101010107-7-7-7-7-7-7-7-----------------|
D|101010101010101010101010101010107-7-7-7-7-7-7-7-5-5-5-5-9-9-9-9-|
A|10101010101010108-8-8-8-8-8-8-8-5-5-5-5-5-5-5-5-5-5-5-5-9-9-9-9-|
E|8-8-8-8-8-8-8-8---------------------------------3-3-3-3-7-7-7-7-|



  Refrain: x4
e|---------------------| -ique !
B|---------------------| on arrête pas l'progrès
G|-5555----------------| ça devient pathétic
D|-5555-2222-3333-5555-| seule façon qu'ça s'explique
A|-3333-2222-3333-5555-| dieu se pique !
E|------0000-1111-3333-|
                          
e|--------------------------------|
B|--------------------------------|
G|5-------------------------------|
D|5~~-----2-------3-------5-----5-|
A|3-------2~~-----3~~-----5-----5~|
E|--------0-------1-------3333333-|
                           .....

 _______
| intro | a) x1   b) x1
 ¯¯¯¯¯¯¯


  Couplet: x2 -> ça boit d`la bière ça rote et puis ça p**se
                 ça s'voit plus grand que ça l'mérite
                 ç'a des vision quand ça s'décrotte le nez
                 ç'a des réserves de plats congelés
e|----------------------------------------------------------------|
B|----------------------------------------------------------------|
G|----------------10--------------7-------------------------------|
D|10--------------10--------------7---------------5-------9-------|
A|10--------------8-8-8-8-8-8-8-8-5-5-5-5-5-5-5-5-5-------9-------|
E|8-8-8-8-8-8-8-8---------------------------------3-3-3-3-7-7-7-7-|
    p.m..........   .............   ..............  .....   ..... 


  Couplet: x2  -> ça dit entre autre que ça connait l'étique
                  ça prend aux pauvres ça donne aux riches
                  pour berner l'monde question d'aller plus vite
                  déjà on vend l'air au Mex-
e|----------------------------------------------------------------|
B|----------------------------------------------------------------|
G|----------------10101010101010107-7-7-7-7-7-7-7-----------------|
D|101010101010101010101010101010107-7-7-7-7-7-7-7-5-5-5-5-9-9-9-9-|
A|10101010101010108-8-8-8-8-8-8-8-5-5-5-5-5-5-5-5-5-5-5-5-9-9-9-9-|
E|8-8-8-8-8-8-8-8---------------------------------3-3-3-3-7-7-7-7-|


  Refrain: x4
e|---------------------| -ique !
B|---------------------| on arrête pas l'progrès
G|-5555----------------| ça devient pathétic
D|-5555-2222-3333-5555-| seule façon qu'ça s'explique
A|-3333-2222-3333-5555-| dieu se pique !
E|------0000-1111-3333-|
                                          


Solo: 
e|----------------------------------------------------------------|
B|----------------------------------------------------------------|
G|----------------5-5-5-5-5-5-5-5-----------------5-5-5-5-5-5-5-5-|
D|5-5-5-5-5-5-5-5-----------------5-5-5-5-5-5-5-5-----------------|
A|----------------------------------------------------------------|
E|----------------------------------------------------------------|
 |p.m.............................................................|
 |                                                                |
e|----------------------------------------------------------------|
B|----------------------------------------------------------------|
G|--------------------------------------9-------------------------| 
D|--------------------------------10-12---------------12-9-10-----| 
A|----------------------------------------------------------------|
E|----------------------------------------------------------------|

  G1 & G2 :
e|----------------------------------------------------------------|
B|----------------------------------------------------------------|
G|------9~------------------------------9~------------------------|
D|10-12----------9-12-9-10~-------10-12----------9-12-9-10~-------|
A|----------------------------------------------------------------|
E|----------------------------------------------------------------|



  bridge: x2
e|-------------------------------------------|
B|-------------------------------------------|
G|5/9999---5/1010---7/1111--/12-/14-/16-/17--|
D|5/9999---5/1010---7/1111--/12-/14-/16-/17--|
A|3/7777---3/8888---5/9999--/10-/12-/14-/15--|
E|-------------------------------------------|


  Refrain:
e|---------------------|    |------------------------|
B|---------------------|    |------------------------| hey, on arrête pas l'progrès
G|-5555----------------| x3 |-5555-----------------5-| ça devient pathétic
D|-5555-2222-3333-5555-|puis|-5555-2222-3333-------5-| seule façon qu'ça s'explique
A|-3333-2222-3333-5555-|    |-3333-2222-3333-------3-| dieu se pique ! 
E|------0000-1111-3333-|    |------0000-1111-333333--|
                                        p.m..
            

comments powered by Disqus
↑ Back to top | Vulgaires Machins Tabs for Dieu Se Pique. Lyrics for acoustic guitar and electric guitar. Tablatures and chords are parodies/interpretations of the original songs. You may use it for private study, scholarship, research or language learning purposes only