» » »

Vulgaires Machins, Dieu Se Pique Tabs (ver.2)

Artists:  A B C D E F G H I J K L M N O P Q R S T U V W X Y Z # 

Dieu Se Pique Tabs (ver.2)

Vulgaires Machins Tabs
 Rating:
4/5 (4 votes)
Dieu Se Pique lessons Tabs too difficult? Try these video lessons and learn fast
1
                Dieu se pique
Vulgaires machins
Tabler par Marc-Alex


intro(x2)
e|--------------------------------------------------|
B|--------------------------------------------------|
G|---------------------7-4---------------5-5-5-4-4--|
D|-------5-2----2/3/5------3-3-3-----3------------5-|
A|-3-3-3-----3-------------------3-3----------------|
E|--------------------------------------------------|
  |----pm----|            |---------pm-------------|

e|--------------------------------------------------|
B|--------------------------------------------------|
G|---------------------7-4---------------5-5-5-4-4--|
D|-------5-2----2/3/5------3-3-3-----3------------5-|
A|-3-3-3-----3-------------------3-3----------------|
E|--------------------------------------------------|
  |----pm----|            |----pm------|

  verse(x2)
e-|----------------------------------------|
B-|----------------------------------------|
G-|-5--9----5--10----7--11-----12/14/16/17-|
D-|-5~-9(x4)5~-10(x4)7~-11(x4)-12/14/16/17-|
A-|-3--7----3---8----5---9-----10/12/14/15-|
E-|----------------------------------------|

  Couplet(x2)(ça se dit des belles...)
e-|---------------------------------------------|
B-|---------------------------------------------|
G-|----------10-10-----7-7----------------------|
D-|-10-10----10-10(x4)-7-7(x4)--5-5-----9-9-----|
A-|-10-10(x4)-8--8-----5-5------5-5(x2)-9-9(x2)-|
E-|--8--8-----------------------3-3-----7-7-----|
      	|-pm-|   |-pm-|   |-pm-|  |pm|    |pm|

  Couplet(x2)(l`été y`on chaud...)
e-|---------------------------------------------|
B-|---------------------------------------------|
G-|----------10-10-----7-7----------------------|
D-|-10-10----10-10(x4)-7-7(x4)--5-5-----9-9-----|
A-|-10-10(x4)-8--8-----5-5------5-5(x2)-9-9(x2)-|
E-|--8--8-----------------------3-3-----7-7-----|

  Refrain(on arrête le progrès...)
e-|---------------------------------------------------|
B-|---------------------------------------------------|
G-|-5555----------------------5-----------------------|
D-|-5555-2222-3333-5555-------5~~-2--3---5-55-5-55-5--|
A-|-3333-2222-3333-5555—--x4--3---2~~3~~-5-55-5-55-5--|
E-|------0000-1111-3333-----------0--1---3-33-3-33-3--|
                                          |pm| |pm|

intro(x2)
e|--------------------------------------------------|
B|--------------------------------------------------|
G|---------------------7-4---------------5-5-5-4-4--|
D|-------5-2----2/3/5------3-3-3-----3------------5-|
A|-3-3-3-----3-------------------3-3----------------|
E|--------------------------------------------------|
  |----pm----|            |---------pm-------------|


  Couplet(x2)(ça boit d`la bière...)
e-|---------------------------------------------|
B-|---------------------------------------------|
G-|----------10-10-----7-7----------------------|
D-|-10-10----10-10(x4)-7-7(x4)--5-5-----9-9-----|
A-|-10-10(x4)-8--8-----5-5------5-5(x2)-9-9(x2)-|
E-|--8--8-----------------------3-3-----7-7-----|
      	|-pm-|   |-pm-|   |-pm-|  |pm|    |pm|

  Couplet(x2)(ça dit entre autre...)
e-|---------------------------------------------|
B-|---------------------------------------------|
G-|----------10-10-----7-7----------------------|
D-|-10-10----10-10(x4)-7-7(x4)--5-5-----9-9-----|
A-|-10-10(x4)-8--8-----5-5------5-5(x2)-9-9(x2)-|
E-|--8--8-----------------------3-3-----7-7-----|

  Refrain(on arrête le progrès...)
e-|----------------------------|
B-|----------------------------|
G-|-5555-----------------------|
D-|-5555-2222-3333-5555--------|
A-|-3333-2222-3333-5555—--x4---|
E-|------0000-1111-3333--------|
                                          


Solo 

   Guitare 1
e|--------------------------------------------------------------------------------|
B|--------------------------------------------------------------------------------|
G|------------55555555----------55555555----5--7--9-9-------------5--7--9-9-------|
D|---55555555----------55555555------------------------9--10--5------------9-10-5-|
A|--------------------------------------------------------------------------------|
E|--------------------------------------------------------------------------------|
 |-------------------------------------|
 |               p.m.                                                                       
 | Guitare 2                                                                                
e|--------------------------------------------------------------------------------|
B|--------------------------------------------------------------------------------|
G|---------------------7----9---------------5--7--9-9-------------5--7--9-9-------|
D|-------------------------------9-----10--------------9--10--5------------9-10-5-|
A|--------------------------------------------------------------------------------|
E|--------------------------------------------------------------------------------|


  verse(x2)
e-|----------------------------------------|
B-|----------------------------------------|
G-|-5--9----5--10----7--11-----12/14/16/17-|
D-|-5~-9(x4)5~-10(x4)7~-11(x4)-12/14/16/17-|
A-|-3--7----3---8----5---9-----10/12/14/15-|
E-|----------------------------------------|

  Refrain(on arrête le progrès...)
e-|----------------------------------------------|
B-|----------------------------------------------|
G-|-5555-------------------5555----------------5-|
D-|-5555-2222-3333-5555----5555-2222-3333-5----5-|
A-|-3333-2222-3333-5555—x3-3333-2222-3333-5(x7)3-|
E-|------0000-1111-3333---------0000-1111-3------|
            
Submit corrections

comments powered by Disqus
↑ Back to top | Vulgaires Machins Tabs for Dieu Se Pique. Lyrics for acoustic guitar and electric guitar. 1 Tablatures and chords are parodies/interpretations of the original songs. You may use it for private study, scholarship, research or language learning purposes only