>
 >
Dieu Se Pique

Dieu Se Pique Guitar Tabs

Vulgaires Machins - Dieu Se Pique chords, tabs, tablatures, lyrics

Guitar lessons | Add/correct | Request | Top 50 tabs Artists:  A B C D E F G H I J K L M N O P Q R S T U V W X Y Z 0-9

Dieu Se Pique Guitar Tabs – Vulgaires Machins

CD, Sheet music, Poster

Do you like Dieu Se Pique? Share with your friends now
TabsTabs v2Tabs v3

La plupart du temps, les deux guitares jouent la même chose. Ce n'est pas le cas en début de
toune, mais je n'ai pas trouvé la deuxième guit au début. Pour le reste, j'ai indiqué quand
les deux ne jouent pas la même chose.

 p.m. : (palm mute léger)
 P.M. : (palm mute fort)
 2b3  : de 2, faire un bend d'un demi-ton jusqu'à 3
 ~~   : let ring
 2/3  : de 2, faire un slide jusqu'à 3

Intro 
e|-----------------------------------------------------------------------------------------|
B|-----------------------------------------------------------------------------------------|
G|----------------------------------------------5-5-5-5-4-4--------------------------------|
D|----------5-2-----2--5--12--9---3-3-3-3-----3-------------3------------------------------|(x2)
A|--3-3-3-3-----3-------------------------3-3----------------------------------------------|
E|-----------------------------------------------------------------------------------------|
    |------------| |----|         |--------------------------|
        P.M.        p.m.                      P.M.

e|-----------------------------------------------------------------------------------------|
B|-----------------------------------------------------------------------------------------|
G|--------------------------------------------------5-5-4-4--------------------------------|
D|----------5-2-----2--5--12--9---3-3-3-3-----3-------------3------------------------------|
A|--3-3-3-3-----3-------------------------3-3----------------------------------------------|
E|-----------------------------------------------------------------------------------------|
    |------------| |----|         |------------|
        P.M.        p.m.               P.M.

   Guitare 1
e|-----------------------------------------------------------------------------------------|
B|-----------------------------------------------------------------------------------------|
G|-----------------------------------------------------------------------------------------|
D|-----------------------------------------------------5-5--7-7--9-9--10-10----------------|(x2)
A|--3-3/7-77777--3-3/8----88888-----5-5/9----99999-----------------------------------------|
E|-----------------------------------------------------------------------------------------|
 |                                                                                         |
 | Guitare 2                                                                               |
e|-----------------------------------------------------------------------------------------|
B|-----------------------------------------------------8-8-10-10-12-12-13-13---------------|
G|--5-5/9-99999--5-5/10-1010101010--6-6/11-1111111111--------------------------------------|
D|-----------------------------------------------------------------------------------------|(x2)
A|-----------------------------------------------------------------------------------------|
E|-----------------------------------------------------------------------------------------|

Ensuite...

e|-----------------------------------------------------------------------------------------|
B|-----------------------------------------------------------------------------------------|
G|----------------10-----------7-----------------------------------------------------------|
D|---10-----------10-----------7-----------5--------9--------------------------------------|
A|---10-----------8--8888888---5-5555555---5--------9--------------------------------------|
E|---8--8888888----------------------------3-333----7-777----------------------------------|
        |-----|      |-----|     |-----|    |---|    |---|
         P.M.         P.M.        P.M.       P.M.     P.M.
(Ça s'dit des belles choses quand y'a d'la visite...)

e|-----------------------------------------------------------------------------------------|
B|-----------------------------------------------------------------------------------------|
G|----------------10-----------7-----------------------------------------------------------|
D|---10-----------10-----------7-----------5--------9--------------------------------------|
A|---10-----------8--8888888---5-5555555---5-~~-----9-~~-----------------------------------|
E|---8--8888888----------------------------3--------7--------------------------------------|
        |-----|      |-----|     |-----|
         P.M.         P.M.        P.M.
(Ça plit les genoux, ça essaye d'aller plus vite...)

e|-----------------------------------------------------------------------------------------|
B|-----------------------------------------------------------------------------------------|
G|----------------10-----------7-----------------------------------------------------------|
D|---10-----------10-(x8)------7-(x8)------5--------9--------------------------------------|(x2)
A|---10-(x8)-------8-----------5-----------5-(x4)---9-(x4)---------------------------------|
E|---8-------------------------------------3--------7--------------------------------------|
(L'été y'ont chaud, l'hiver y gêlent...)
(Y triment la haie, y shootent des parasites...)

e|-----------------------------------------------------------------------------------------|
B|-----------------------------------------------------------------------------------------|
G|---5-------9-------10-------7------------------------------------------------------------|
D|---5-(x3)--9-(x3)--10-(x3)--7-(x3)-------------------------------------------------------|(X3)
A|---3-------7-------8--------5------------------------------------------------------------|
E|-----------------------------------------------------------------------------------------|
(On arrête pas le progrès...)

e|-----------------------------------------------------------------------------------------|
B|-----------------------------------------------------------------------------------------|
G|---5-------7-------5---------------------------------------------------------------------|
D|---5-~~----7-~~----5-~~----2-------3-----------------------------------------------------|
A|---3-------5-------3-------2-~~----3-~~------2-2-2-2-2-2-2-------------------------------|
E|---------------------------0-------1-----------------------------------------------------|
            (Dieu se pique...)                |-------------|
                                                   P.M.

e|-----------------------------------------------------------------------------------------|
B|-----------------------------------------------------------------------------------------|
G|----------------------------------------------5-5-5-5-4-4--------------------------------|
D|----------5-2-----2--5--12--9---3-3-3-3-----3-------------3------------------------------|
A|--3-3-3-3-----3-------------------------3-3----------------------------------------------|
E|-----------------------------------------------------------------------------------------|
    |------------| |----|         |--------------------------|
        P.M.        p.m.                      P.M.


e|-----------------------------------------------------------------------------------------|
B|-----------------------------------------------------------------------------------------|
G|----------------------------------------------5-5-5-5-4----------------------------------|
D|----------5-2-----2--5--12--9---3-3-3-3-----3-----------3-3-3----------------------------|
A|--3-3-3-3-----3-------------------------3-3----------------------------------------------|
E|-----------------------------------------------------------------------------------------|
    |------------| |----|         |---------------------------|
        P.M.        p.m.                      P.M.

Ensuite, c'est la même chose que pour le premier couplet...
e|-----------------------------------------------------------------------------------------|
B|-----------------------------------------------------------------------------------------|
G|----------------10-----------7-----------------------------------------------------------|
D|---10-----------10-----------7-----------5--------9--------------------------------------|
A|---10-----------8--8888888---5-5555555---5--------9--------------------------------------|
E|---8--8888888----------------------------3-333----7-777----------------------------------|
        |-----|      |-----|     |-----|    |---|    |---|
         P.M.         P.M.        P.M.       P.M.     P.M.
(Ça boit d'la bierre, ça rente et pis ça pisse...)

e|-----------------------------------------------------------------------------------------|
B|-----------------------------------------------------------------------------------------|
G|----------------10-----------7-----------------------------------------------------------|
D|---10-----------10-----------7-----------5--------9--------------------------------------|
A|---10-----------8--8888888---5-5555555---5-~~-----9-~~-----------------------------------|
E|---8--8888888----------------------------3--------7--------------------------------------|
        |-----|      |-----|     |-----|
         P.M.         P.M.        P.M.
(Ça a des visions quand ça s'décrotte le nez...)

e|-----------------------------------------------------------------------------------------|
B|-----------------------------------------------------------------------------------------|
G|----------------10-----------7-----------------------------------------------------------|
D|---10-----------10-(x8)------7-(x8)------5--------9--------------------------------------|(x2)
A|---10-(x8)-------8-----------5-----------5-(x4)---9-(x4)---------------------------------|
E|---8-------------------------------------3--------7--------------------------------------|
(Ça dit entre autres que ça connait l'éthique...)
(Pour berner l'monde question d'aller plus vite...)

e|-----------------------------------------------------------------------------------------|
B|-----------------------------------------------------------------------------------------|
G|---5-------9-------10-------7------------------------------------------------------------|
D|---5-(x3)--9-(x3)--10-(x3)--7-(x3)-------------------------------------------------------|(X3)
A|---3-------7-------8--------5------------------------------------------------------------|
E|-----------------------------------------------------------------------------------------|
(On arrête pas le progrès...)

e|-----------------------------------------------------------------------------------------|
B|-----------------------------------------------------------------------------------------|
G|---5-------7-------5---------------------------------------------------------------------|
D|---5-~~----7-~~----5-~~~~~~~-------------------------------------------------------------|
A|---3-------5-------3---------------------------------------------------------------------|
E|-----------------------------------------------------------------------------------------|

Une des deux guitares laisse sonner le C5 un bon bout

   Guitare 1
e|-----------------------------------------------------------------------------------------|
B|-----------------------------------------------------------------------------------------|
G|------------55555555----------55555555----5--7--9-9-------------5--7--9-9----------------|
D|---55555555----------55555555------------------------9--10--5--------------9--10--5------|
A|-----------------------------------------------------------------------------------------|
E|-----------------------------------------------------------------------------------------|
 |  |-----------------------------------|
 |               p.m.                                                                      |
 | Guitare 2                                                                               |
e|-----------------------------------------------------------------------------------------|
B|-----------------------------------------------------------------------------------------|
G|---------------------7----9---------------5--7--9-9-------------5--7--9-9----------------|
D|-------------------------------9-----10--------------9--10--5--------------9--10--5------|
A|-----------------------------------------------------------------------------------------|
E|-----------------------------------------------------------------------------------------|


   Guitare 1
e|-----------------------------------------------------------------------------------------|
B|-----------------------------------------------------------------------------------------|
G|-----------------------------------------------------------------------------------------|
D|-----------------------------------------------------5-5--7-7--9-9--10-10----------------|(x2)
A|--3-3/7-77777--3-3/8----88888-----5-5/9----99999-----------------------------------------|
E|-----------------------------------------------------------------------------------------|
 |                                                                                         |
 | Guitare 2                                                                               |
e|-----------------------------------------------------------------------------------------|
B|-----------------------------------------------------8-8-10-10-12-12-13-13---------------|
G|--5-5/9-99999--5-5/10-1010101010--6-6/11-1111111111--------------------------------------|
D|-----------------------------------------------------------------------------------------|(x2)
A|-----------------------------------------------------------------------------------------|
E|-----------------------------------------------------------------------------------------|


e|-----------------------------------------------------------------------------------------|
B|-----------------------------------------------------------------------------------------|
G|---5-------9-------10-------7------------------------------------------------------------|
D|---5-(x3)--9-(x3)--10-(x3)--7-(x3)-------------------------------------------------------|(X3)
A|---3-------7-------8--------5------------------------------------------------------------|
E|-----------------------------------------------------------------------------------------|
(Eye!! On arrête pas le progrès...)

e|-----------------------------------------------------------------------------------------|
B|-----------------------------------------------------------------------------------------|
G|---5-------7-------5--------5------------------------------------------------------------|
D|---5-(x8)--7-(x8)--5-(x8)---5------------------------------------------------------------|
A|---3-------5-------3--------3------------------------------------------------------------|
E|-----------------------------------------------------------------------------------------|
                    |------|
                      P.M.
(Dieu se pique!!! Ahh...)





Comments


Popular Vulgaires Machins tabs & chords
A Tabs
Capital Tabs
Dieu Se Pique 2 Tabs
Faut Pas Sleurer Tabs
La Chasse Est Ouverte Tabs
La Rue DéRagon Tabs
Papotinage Tabs
Un Vote De Moin Tabs
Un Vote De Moins Tabs
Les Gens De Loccident Ukulele


Song lyrics



↑ Back to top | Tablatures and chords are parodies/interpretations of the original songs. You may use it for private study, scholarship, research or language learning purposes only
© 2014 AZChords.com Contact us | Privacy policy | DMCA | Add/correct tabs | Request tabs | Top 50 tabs