» » »

Vulgaires Machins, Cocainomane Tabs (ver.1)

Artists:  A B C D E F G H I J K L M N O P Q R S T U V W X Y Z # 

Cocainomane Tabs (ver.1)

Vulgaires Machins Tabs
 Rating:
4/5 (4 votes)
Cocainomane lessons Tabs too difficult? Try these video lessons and learn fast
1
                intro(x4)pour guit 2(clean)Guillaume
e-|---------------|----------------|--------------------|
B-|---------------|----------------|--------------------|
G-|---------------|-5~~~~~~~~------|-7~~~~~~~~----------|
D-|-5~~~~~~~~-----|-5~~~~~~~~------|-7~~~~~~~~----------|
A-|-5~~~~~~~~-----|-3~~~~~~~~------|-5~~~~~~~~----------|
E-|-3~~~~~~~~-----|----------------|--------------------|
J`fais d`la poudre|pour travailer +|pour faire + d`argent


Intro(x4)pour guit 1(clean)Marie-Ève
e-|---------------|----------------|--------------------|
B-|---------------|----------------|--------------------|
G-|---------------|---5-5----------|---7-7--------------|
D-|---5-5---------|--5---5---------|--7---7-------------|
A-|--5---5--------|-3-----3--------|-5-----5------------|
E-|-3-----3-------|----------------|--------------------|
J`fais d`la poudre|pour travailer +|pour faire + d`argent


Couplet(x4)guit 1 et 2(distortion)
e-|---------------|----------------|--------------------|
B-|---------------|----------------|--------------------|
G-|---------------|-5-5-5-5-5-5-5--|-7-7-7-7-7-7-7------|
D-|-5-5-5-5-5-5-5-|-5-5-5-5-5-5-5--|-7-7-7-7-7-7-7------|
A-|-5-5-5-5-5-5-5-|-3-3-3-3-3-3-3--|-5-5-5-5-5-5-5------|
E-|-3-3-3-3-3-3-3-|----------------|--------------------|
J`fais...         pour travailer... pour faire...


A un momment donner sa arrete et sa fait ca(x6)(distortion)guit 1 et 2
e-|---------------|----------------|--------------------|
B-|---------------|----------------|--------------------|
G-|-5-5-5-5-5-5-5-|-7-7-7-7-7-7-7--|--------------------|
D-|-5-5-5-5-5-5-5-|-7-7-7-7-7-7-7--|-5-5-5-5-5-5-5------|
A-|-3-3-3-3-3-3-3-|-5-5-5-5-5-5-5--|-5-5-5-5-5-5-5------|
E-|---------------|----------------|-3-3-3-3-3-3-3------|
  Pour travailer +|pour faire +... |pour faire + de poudre


 A la fin guillaume fait des bruit bizarre et l`accord est
  (distortion)guit 1 et 2
e-|---------------|
B-|---------------|
G-|---------------|
D-|---5~~~~~~~----|
A-|---5~~~~~~~----|
E-|---3~~~~~~~----|


Fin............


Si y'a des questions e-mailer moi...
            
Submit corrections

comments powered by Disqus
↑ Back to top | Vulgaires Machins Tabs for Cocainomane. Lyrics for acoustic guitar and electric guitar. 1 Tablatures and chords are parodies/interpretations of the original songs. You may use it for private study, scholarship, research or language learning purposes only