» » »

Vulgaires Machins, A Tabs (ver.1)

Artists:  A B C D E F G H I J K L M N O P Q R S T U V W X Y Z # 

A Tabs (ver.1)

Vulgaires Machins Tabs
 Rating:
4.2/5 (5 votes)
A lessons Tabs too difficult? Try these video lessons and learn fast
                 >------------------Tab: Guitare 1---------------------<
 
Play the intro whit finger picking (Guitare 1).
 
 Part A (p-m-i-m)                                             
|------------------------|------------------------|
|----0-----0-----0-----0-|----0-----0-----0-----0-|
|-------0-----------0----|-------0-----------0----|
|-2-----------2----------|-2-----------2----------|
|------------------------|------------------------|
|------------------------|------------------------|                                                
                                 
|------------------------|------------------------|
|----1-----1-----1-----1-|----1-----1-----1-----1-|
|-------0-----------0----|-------0-----------0----|
|-2-----------2----------|-2-----------2----------|
|------------------------|------------------------|
|------------------------|------------------------|
                                                                                                     
|------------------------|------------------------|
|----0-----0-----0-----0-|----0-----0-----0-----0-|
|-------0-----------0----|-------0-----------0----|
|-0-----------0----------|-0-----------0----------|
|------------------------|------------------------|
|------------------------|------------------------|
                                                                                                     
|------------------------|------------------------|
|----0-----0-----0-----0-|----0-----0-----0-----0-|
|------------------------|------------------------|
|-------4-----------4----|-------4-----------4----|
|-6-----------6----------|-6-----------6----------|
|------------------------|------------------------|
Part B                                                  
|-0-----0-----0-----0----|-0-----0-----0-----0----|
|----5-----5-----5-----5-|----5-----5-----5-----5-|
|------------------------|------------------------|
|------------------------|------------------------|
|------------------------|------------------------|
|------------------------|------------------------|
                                                   
|-0-----0-----0-----0----|-0-----0-----0-----0----|
|----5-----5-----5-----5-|----5-----5-----5-----5-|
|------------------------|------------------------|
|------------------------|------------------------|
|------------------------|------------------------|
|------------------------|------------------------|
                                                   
|-0-----0-----0-----0----|-0-----0-----0-----0----|
|----5-----5-----5-----5-|----5-----5-----5-----5-|
|------------------------|------------------------|
|------------------------|------------------------|
|------------------------|------------------------|
|------------------------|------------------------|
                                                   
|-0-----0-----0-----0----|-0-----0-----0-----0----|
|----5-----5-----5-----5-|----5-----5-----5-----5-|
|------------------------|------------------------|
|------------------------|------------------------|
|------------------------|------------------------|
|------------------------|------------------------|
                                                   
|-3-----3-----3-----3----|-3-----3-----3-----3----|
|----3-----3-----3-----3-|----3-----3-----3-----3-|
|------------------------|------------------------|
|------------------------|------------------------|
|------------------------|------------------------|
|------------------------|------------------------|

|-2-----2-----2-----2----|-2-----2-----2-----2----|
|----4-----4-----4-----4-|----4-----4-----4-----4-|
|------------------------|------------------------|
|------------------------|------------------------|
|------------------------|------------------------|
|------------------------|------------------------|
Part C  (Distortion)                                          
|-0--0--0--0--0--0--0--0-|-0--0--0--0--0--0--0--0-|
|-0--0--0--0--0--0--0--0-|-1--1--1--1--1--1--1--1-|
|-0--0--0--0--0--0--0--0-|-0--0--0--0--0--0--0--0-|
|-2--2--2--2--2--2--2--2-|-2--2--2--2--2--2--2--2-|
|-2--2--2--2--2--2--2--2-|-3--3--3--3--3--3--3--3-|
|-0--0--0--0--0--0--0--0-|------------------------|

|-3--3--3--3--3--3--3--3-|-0--0--0--0--0--0--0--0-|
|-0--0--0--0--0--0--0--0-|-0--0--0--0--0--0--0--0-|
|-0--0--0--0--0--0--0--0-|-4--4--4--4--4--4--4--4-|
|-0--0--0--0--0--0--0--0-|-4--4--4--4--4--4--4--4-|
|-2--2--2--2--2--2--2--2-|-2--2--2--2--2--2--2--2-|
|-3--3--3--3--3--3--3--3-|-0--0--0--0--0--0--0--0-|
Part D (distortion) (each chords 16 times)
|------------------------|------------------------|
|------------------------|------------------------|
|----------5-------------|-------------4----------|
|-2--------5-------------|-5-----------4----------|
|-2--------3-------------|-5-----------2----------|
|-0----------------------|-3----------------------|
Part E                      
|-0----------------------|
|-0----------------------|
|-9----------------------|
|-9----------------------|
|-7----------------------|
|------------------------|
Structure Guit 1:
Part A - 6 x    Part C - 1 x     Part E - 1 x
Part B - 1 x    Part E - 1 x
Part A - 2 x    Part A - 3 x
Part B - 1 x    part D - 2 x
>------------------Tab: Guitar 2---------------------<
|------------------------|---|------------------------|
|------------------------|---|-8~---------------------|
|------------------------|---|------------------------|
|-2~---------------------|---|------------------------|
|------------------------|---|------------------------|
|------------------------|---|------------------------|

|-7~---------------------|---|------------------------|
|------------------------|---|------------------------|
|------------------------|---|------------------------|
|------------------------|---|-2~---------------------|
|------------------------|---|----------------3~------|
|------------------------|---|------------------------|

|------------------------|------------------------|
|------------------------|------------------------|
|------------------------|------------------------|
|------------------------|------------------------|
|-------------2~---------|------------------------|
|-3~---------------------|-2~----0~---------------|

|------------------------|------------------------|
|------------------------|------------------------|
|------------------------|------------------------|
|------------------------|------------------------|
|-3~---------------------|-2~----------6~--7~-----|
|-------------3~---------|------------------------|
                                                   
|------------------------|------------------------|
|------------------------|------------------------|
|------------------------|------------------------|
|------------------------|------------------------|
|-5~-3~------------------|-------------2~---------|
|------------------------|-3~---------------------|
--> Part B guit 1
|------------------------|------------------------|
|------------------------|------------------------|
|------------------------|------------------------|
|-2~---------------------|------------------------|
|----------------3~------|-------------2~---------|
|------------------------|-3~---------------------|
......Distortion......                        
|------------------------|-------------------7~---|
|------------------------|-8~-------------8-------|
|------------------------|------------------------|
|-2----------------------|------------------------|
|------------------------|------------------------|
|------------------------|------------------------|
End: "guitar 1 play part D" -->guitar 2 play this (distortion) (2x)
|------------------------|------------------------|
|----0-----0-----0-----0-|----0-----0-----0-----0-|
|-------0-----------0----|-------0-----------0----|
|-2-----------2----------|-2-----------2----------|
|------------------------|------------------------|
|------------------------|------------------------|

|------------------------|------------------------|
|----1-----1-----1-----1-|----1-----1-----1-----1-|
|-------0-----------0----|-------0-----------0----|
|-2-----------2----------|-2-----------2----------|
|------------------------|------------------------|
|------------------------|------------------------|

|------------------------|------------------------|
|----0-----0-----0-----0-|----0-----0-----0-----0-|
|-------0-----------0----|-------0-----------0----|
|-0-----------0----------|-0-----------0----------|
|------------------------|------------------------|
|------------------------|------------------------|

|------------------------|------------------------|
|----0-----0-----0-----0-|----0-----0-----0-----0-|
|------------------------|------------------------|
|-------4-----------4----|-------4-----------4----|
|-6-----------6----------|-6-----------6----------|
|------------------------|------------------------|
            
Submit corrections

comments powered by Disqus
↑ Back to top | Vulgaires Machins Tabs for A. Lyrics for acoustic guitar and electric guitar. Tablatures and chords are parodies/interpretations of the original songs. You may use it for private study, scholarship, research or language learning purposes only