» » »

Raised By Wolves Bass tabs (ver.1)

Artists:  A B C D E F G H I J K L M N O P Q R S T U V W X Y Z # 

Raised By Wolves Bass tabs (ver.1)

Voxtrot
Rating:
5/5 (1 vote)
Tabs too difficult? Try these video lessons and learn fast.
                
Band: Voxtrot



Tuning: Standard

VERSE 1
G|----------------|----------------|----------------|------------9---|
D|7-----7-------7-|------------9/11|11--------------|----------------|
A|----7-------7---|----------------|------11--------|----------------|
E|----------------|----------------|----------------|----------------|

G|7---------------|----------------|--9---14--------|----------------|
D|----------------|9-------7-----9-|11--11----------|----------------|
A|----------------|----------------|----------------|------------12\-|
E|----------------|----------------|----------------|----------------|

G|----------------|----------------|----------------|----------------
D|----------------|----------------|----------------|----------------
A|----------------|----------------|4-----4-4-----4-|4-----4-4-----4-
E|5-----5-5-----5-|5-----5-5-----5-|----------------|----------------

G|----------------|----------------|----------------|----------------|
D|----------------|----------------|----------------|----------------|
A|5-----5-5-----5-|2-----2-5-----5-|----------------|----------------|
E|----------------|----------------|5-----5-5-----5-|5-----5-5-----5-|

G|----------------|----------------|----------------|----------------|
D|6---------------|----------------|----------------|----------------|
A|----------------|7-----------5-4-|2-----2-2-----2-|5-----5-5-----5-|
E|----------------|----------------|----------------|----------------|

G|----------------|----------------|----------------|----------------|
D|----------------|----------------|----------------|----------------|
A|----------------|2-----2-5-----5-|----------------|0---0---0---0/--|
E|5-----5-5-----5-|----------------|5---5---5-0-5-0-|----------------|

PRE-CHORUS
G|----------------|----------------|----------------|----------------|
D|----------------|----------------|----------------|----------------|
A|12--------------|------------12--|11--------------|------------11--|
E|----------------|----------------|----------------|----------------|

G|----------------|----------------|----------------|----------------|
D|----------------|----------------|----------------|----------------|
A|9---------------|------------9---|7---------------|------------7/--|
E|----------------|----------------|----------------|----------------|

G|----------------|----------------|----------------|----------------|
D|----------------|----------------|----------------|----------------|
A|1212121212121212|1212121212121212|1111111111111111|1111111111111111|
E|----------------|----------------|----------------|----------------|
  ^12 not 1 and 2                   ^11 not 1 and 1

G|----------------|----------------|----------------|----------------|----------------|
D|----------------|----------------|----------------|9-9-9-9-9-9-9-9-|9-9-9-9-9-9-9-9-|
A|9-9-9-9-9-9-9-9-|1212121212121212|7-7-7-7-7-7-7-7-|----------------|----------------|
E|----------------|----------------|----------------|----------------|----------------|

CHORUS
G|----------------|--------6-------|----------------|----4-----------|
D|--------7-4---4-|----6-------6---|4---4-----------|----------------|
A|------------7---|4---------------|----------------|2---------------|
E|5---5-----------|----------------|----------------|----------------|

G|----------------|----------------|----------------|----------------|
D|----4---7\--4---|3---3-----------|7---7\----------|----------------|
A|5---------------|----------------|----------------|----------------|
E|----------------|----------------|----------------|----------------|

G|----------------|--------6-------|----------------|----4-----------|
D|--------7-4---4-|----6-------6---|4---4-----------|----------------|
A|------------7---|4---------------|----------------|2---------------|
E|5---5-----------|----------------|----------------|----------------|

G|----------------|----------------|----------------|----------------|
D|----4/--7\--4---|3---3-----------|7---7\----------|----------------|
A|5---------------|----------------|----------------|----------------|
E|----------------|----------------|----------------|----------------|

VERSE 2
G|----------------|----------------|----------------|------------9---|
D|7-----7-------7-|------------9/11|11--------------|----------------|
A|----7-------7---|----------------|------11--------|----------------|
E|----------------|----------------|----------------|----------------|

G|7---------------|----------------|--9-------------|9/14------------|
D|----------------|9-------7-----9-|11--11----------|----------------|
A|----------------|----------------|----------------|------------12\-|
E|----------------|----------------|----------------|----------------|

G|----------------|----------------|----------------|----------------
D|----------------|----------------|----------------|----------------
A|----------------|----------------|4-----4-4-----4-|4-----4-4-----4-
E|5-----5-5-----5-|5-----5-5-----5-|----------------|----------------

G|----------------|----------------|----------------|----------------|
D|----------------|----------------|----------------|----------------|
A|5-----5-5-----5-|2-----2-5-----5-|----------------|----------------|
E|----------------|----------------|5-----5-5-----5-|5-----5-5-----5-|

G|----------------|----------------|----------------|----------------|
D|6---------------|----------------|----------------|----------------|
A|----------------|7-----------5-4-|2-----2-2-----2-|5-----5-5-----5-|
E|----------------|----------------|----------------|----------------|

G|----------------|----------------|----------------|----------------|
D|----------------|----------------|----------------|----------------|
A|----------------|2-----2-5-----5-|----------------|0---0---0---0/--|
E|5-----5-5-----5-|----------------|5---5---5-0-5-0-|----------------|

REPEAT PRE-CHORUS

REPEAT CHORUS

PRE-BRIDGE
G|----------------|
D|----------------|
A|7-7-7-7-7-7-7-7-|
E|----------------|

BRIDGE
G|----------6-----|9---9-9-7-------|----------------|----------------|
D|7---7-7-9-------|----------9-----|--------6-7-----|7-6-4-6-7-6-4-6-|
A|----------------|----------------|9---9-9---------|----------------|
E|----------------|----------------|----------------|----------------|

G|----------6-----|9---9-9-7-------|----------------|----------------|
D|7---7-7-9-------|----------9-----|--------6-7-----|7-6-4-6-7-6-4-6-|
A|----------------|----------------|9---9-9---------|----------------|
E|----------------|----------------|----------------|----------------|x2

G|----------------|----------------|----------------|----------------|
D|7---------------|----------------|----------------|--------------7\|
A|----------------|----------------|----------------|----------------|
E|----------------|----------------|----------------|----------------|

8 MEASURES OF REST

ENDING
G|----------------|----------------|----------------|----------------|
D|----------------|----------------|----------------|----------------|
A|----------------|----------------|----------------|5-5-5-5-5-5-5-5-|
E|5-5-5-5-5-5-5-5-|5-5-5-5-5-5-5-5-|7-7-7-7-7-7-7-7-|----------------|x2

G|----------------|----------------|----------------|----------------|
D|----------------|----------------|----------------|----------------|
A|----------------|----------------|2-----0-2-------|5-----0-2-5-----|
E|5-----0-2-5---2-|5-----0-2-5---2-|----------------|----------------|x4

G|----------------|
D|----------------|
A|----------------|
E|5---------------|
            
Tabs too difficult? Try these video lessons and learn fast.


comments powered by Disqus
↑ Back to top | Tablatures and chords are parodies/interpretations of the original songs. You may use it for private study, scholarship, research or language learning purposes only