» » »

Long Haul Bass tabs (ver.1)

Artists:  A B C D E F G H I J K L M N O P Q R S T U V W X Y Z # 

Long Haul Bass tabs (ver.1)

Voxtrot
Rating:
0/5 (0 votes)

Tabs too difficult? Try these video lessons and learn fast.
                Main riff:

g|---------------------|
d|---------------------|
a|----0-33-0-55-0-11-0-|
e|-11------------------|

Play this for the intro, verses and wherever else in the song.

When it gets to the 'And you lie to us both...' part play this:

g|-----0-2-3----|-----0-2-3---|-----------------|------------------|
d|-0-3----------|-0-3---------|-3---2---0-------|------------------|
a|--------------|-------------|-------------3---|-1111111111111111-|
e|--------------|-------------|-----------------|------------------|

g|----2---3--5--7-|----------------|
d|-0----3---------|-3--5--7------2-|  x 2
a|----------------|---------0--4---|
e|----------------|----------------|

g|------------------|------------------|-------------------|
d|-0000000000000000-|------------------|-11111111s55555555-|
a|------------------|-1111111111111111-|-------------------|
e|------------------|------------------|-------------------|

g|-------------------|
d|-------------------|
a|-33333333s66666688-|
e|-------------------|

The rest is the main riff.

Cheers.
            
Tabs too difficult? Try these video lessons and learn fast.


comments powered by Disqus
↑ Back to top | Tablatures and chords are parodies/interpretations of the original songs. You may use it for private study, scholarship, research or language learning purposes only