» » »

Voxtrot, Introduction Tabs (ver.1)

Artists:  A B C D E F G H I J K L M N O P Q R S T U V W X Y Z # 

Introduction Tabs (ver.1)

Voxtrot Tabs
 Rating:
4.3/5 (6 votes)
Introduction lessons Tabs too difficult? Try these video lessons and learn fast
                
Capo II, All Notes Relative to Capo

This song consists of only two chords E (F#) and A (B).

In the verses, E an A refer to the intro riff.

In the bridge (Step into the sleep...) and onward, he strums the chords fully:

------------------------------------------------------------------|
------------------------------------------------------------------|
---1------6-------------------------------------------------------|
---2------7-------------------------------------------------------|
---2------7-------------------------------------------------------|
---0-----(0)------------------------------------------------------|
   E      A

Intro:

-----------------------------------------------------------------------------|
-----------------------------------------------------------------------------|
-----------------------------------------------------------------------------|
-----------------------------------------------------------------------------|
----2---2---2---2---2---2---2---2---4---4---4---4---4---4---4---4------------|
--0---0---0---0---0---0---0---0---0---0---0---0---0---0---0---0--------------|
  E                               A                                  repeat

E
Open your eyes and stretch your hands
This house is clean but it is not my home
A
Did I make this bed
                         E
The two hands touch on two

Sometimes I think of some place colder
The sound of traffic and the way it's worn
          A                                E
When you feel yourself grow up inside of here
         A                     E
And you love me just like a stranger
          A   (stop)
But you love me just like I am

E A (repeated)

E
Remember we ran through lovely streets
We made our rules and then we broke them first
     A                                  E
It felt like we were running all the time
     E
When I wouldn't give one ugly moment

I'd wrap it up, I'd keep it in my sock
       A                                     E
I can keep it, yeah, I know what's yours is mine
         A                    E
And you love me just like a stranger
          A   (stop)
But you love me when

   E                               A
I stand to the sleep that lets me love some other day
We get bored of weakness all the time
Now I won't know how much I lost until I've gone away
Your sun sets when my sun starts to shine
            
Submit corrections

comments powered by Disqus
↑ Back to top | Voxtrot Tabs for Introduction. Lyrics for acoustic guitar and electric guitar. Tablatures and chords are parodies/interpretations of the original songs. You may use it for private study, scholarship, research or language learning purposes only