» » »

Te Quiero Tabs (ver.2)

Artists:  A B C D E F G H I J K L M N O P Q R S T U V W X Y Z # 

Te Quiero Tabs (ver.2)

Volovan
Rating:
0/5 (0 votes)

Tabs too difficult? Try these video lessons and learn fast.
                -------------------------------------------------------------------------------
                             TE QUIERO - Volován
-------------------------------------------------------------------------------


Antonio García  
30/mar/06

Afinación standard

/ = slide
~ = vibrato
T = tapping
p = pull-off

e|---------------------------------------------------------------------------|
B|---------------------------------------------------------------------------|
G|---------------------------------------------------------------------------|
D|--/9-9-9/7~----------------------------------------------------------------|
A|-------------9-9/10-9-7-5---5-7/9-9-9-9-9-8-9/0----------------------------|
E|--------------------------7------------------------------------------------|

e|---------------------------------------------------------------------------|
B|---------------------------------------------------------------------------|
G|---------------------------------------------------------------------------|
D|-------------------------------------7-7-9-9-9-7-9-9-9-9-9-7~--------------|
A|--/10-10-10-10/9-9/7-7/5-5-5-5/7-7/9---------------------------------------|
E|---------------------------------------------------------------------------|

e|---------------------------------------------------------------------------|
B|-----------------7---/10-8-7-8-10-10-10/12-12-12-10/12-12-12-12/10---------|
G|--------------/7---7-------------------------------------------------------|
D|--/9-9-9-9/7---------------------------------------------------------------|
A|---------------------------------------------------------------------------|
E|---------------------------------------------------------------------------|

e|---------------------------------------------------------------------------|
B|------------------------------T10T12T15p10T12T15p10T12T15p10T12T15---------|
G|--/12-12-12-12/11-11/9-9/7-7-----------------------------------------------|
D|---------------------------------------------------------------------------|
A|---------------------------------------------------------------------------|
E|---------------------------------------------------------------------------|

e|--12-12b14-14-14-14r12-12~-------------------------------------------------|
B|---------------------------------------------------------------------------|
G|---------------------------------------------------------------------------|
D|---------------------------------------------------------------------------|
A|---------------------------------------------------------------------------|
E|---------------------------------------------------------------------------|

y ya eso es tdo... cualkier pdo ahista mi mail :P

saludos al anglo... tquierokmpz :D
===============================================================================
            
Tabs too difficult? Try these video lessons and learn fast.




comments powered by Disqus
↑ Back to top | Tablatures and chords are parodies/interpretations of the original songs. You may use it for private study, scholarship, research or language learning purposes only