>
 >
Still Counting

Still Counting Guitar Tabs

Volbeat - Still Counting chords, tabs, tablatures, lyrics

Guitar lessons | Add/correct | Request | Top 50 tabs Artists:  A B C D E F G H I J K L M N O P Q R S T U V W X Y Z 0-9

Still Counting Guitar Tabs – Volbeat

CD, Sheet music, Poster

Do you like Still Counting? Share with your friends now
Bass TabsChordsTabsTabs v2Tabs v3Ukulele
---------------

Song- Still Counting
Band- Volbeat
tuning- Drop D


Intro

|-------------------------|----------------------|
|x--6--x-x-6---6--x-x-6---|6--x-x-6---6--x-x-6---|
|x--7--x-x-7---7--x-x-7---|7--x-x-7---7--x-x-7---|
|x--7--x-x-7---7--x-x-7---|7--x-x-7---7--x-x-7---|
|x--5--x-x-5---5--x-x-5---|5--x-x-5---5--x-x-5---|
|-------------------------|----------------------|

|--------------------------|----------------------|
|----x-x----------x-x------|---x-x--------x-x-----|
|10--x-x-10---10--x-x-10---|3--x-x-3---2--x-x-2---|
|10--x-x-10---10--x-x-10---|3--x-x-3---2--x-x-2---|
|-8--x-x--8----8--x-x--8---|1--x-x-1---0--x-x-0---|
|--------------------------|----------------------|


Verse 1

|----------------------|----------------------|
|6--x-x-6---6--x-x-6---|6--x-x-6---6--x-x-6---|
|7--x-x-7---7--x-x-7---|7--x-x-7---7--x-x-7---|
|7--x-x-7---7--x-x-7---|7--x-x-7---7--x-x-7---|
|5--x-x-5---5--x-x-5---|5--x-x-5---5--x-x-5---|
|----------------------|----------------------|
                                                        Play 4x
|--------------------------|----------------------|
|----x-x----------x-x------|---x-x--------x-x-----|
|10--x-x-10---10--x-x-10---|3--x-x-3---2--x-x-2---|
|10--x-x-10---10--x-x-10---|3--x-x-3---2--x-x-2---|
|-8--x-x--8----8--x-x--8---|1--x-x-1---0--x-x-0---|
|--------------------------|----------------------|


Heavy Intro

|--------------------------------|-------------------------|
|--------------------------------|-------------------------|
|--------------------------------|-------------------------|
|0-0-------------0-0-------------|0-0-------------3--3--1--|
|0-0-------------0-0-------------|0-0-------------3--3--1--|
|0-0-0-0-0-0-0-0-0-0-0-0-0-0-0-0-|0-0-0-0-0-0-0-0-3--3--1--|
     PM---------|    PM---------|     PM---------|

|-------------------------------|--------------------------------|
|-------------------------------|--------------------------------|
|-------------------------------|--------------------------------| Play
|0-0---0-----0---0-0---0-----0--|0-0---0-----0-------------------|  2x
|0-0---0-----0---0-0---0-----0--|0-0---0-----0-------------------|
|0-0-0-0-0-0-0---0-0-0-0-0-0-0--|0-0-0-0-0-0-0--3p0--0--1p0-1p0--|
     PM  PM-|        PM  PM-|       PM  PM-|

|--------------------------------|--------------------------------|
|--------------------------------|--------------------------------|
|--------------------------------|--------------------------------| Play
|----0-----0-----0-----0-----1p0-|----0-----0-----0-----0-----1p0-|  2x
|----0-----0-----0-----0-----1p0-|----0-----0-----0-----0-----1p0-|
|0-0-0-0-0-0-0-0-0-0-0-0-0-0-1p0-|0-0-0-0-0-0-0-0-0-0-0-0-0-0-1p0-|
 PM-|  PM-|  PM-|  PM-|  PM-|     PM-|  PM-|  PM-|  PM-|  PM-|

|----|--------------------|--------------------------|
|----|--------------------|--------------------------|
|----|7-------------------|--------------------------|
|----|7-------5h7--5h7p5--|3------3--------8--8p7-7--|
|----|5-----5-------------|3------3-3-3-3--8--8p7-7--|
|0-0-|--------------------|3------3-3-3-3--8--8p7-7--|
 PM-|                               PM---|


Verse 2

|------------------------|-------------------------|
|------------------------|-------------------------|
|7-----------------------|-------------------------|
|7-----7-----------7-----|3-----3--------8--8p7-7--|
|5--------5--3--5-----5--|3-----3-3-3-3--8--8p7-7--|
|------------------------|3-----3-3-3-3--8--8p7-7--|
                                  PM---|

|------------------------|-------------------------|
|------------------------|-------------------------|
|7-----------------------|-------------------------|
|7-----7-----------7-----|3-----3--------8--8p7-7--|
|5--------5-----5-----5--|3-----3-3-3-3--8--8p7-7--|
|------------------------|3-----3-3-3-3--8--8p7-7--|
                                  PM---|


Chorus 1

|-------------------------|-------------------------|
|-------------------------|-------------------------|
|-------------------------|-------------------------|
|8--8--8-8-8--8--8--8-8-8-|8--8--8-8-8--8--8--8-8-8-|
|8--8--8-8-8--8--8--8-8-8-|8--8--8-8-8--8--8--8-8-8-|
|8--8--8-8-8--8--8--8-8-8-|8--8--8-8-8--8--8--8-8-8-|

|-----------------------------------|-------------------------|
|-----------------------------------|-------------------------|
|10--10--10-10-10--10--10--10-10-10-|7--7--7-7-7--7--7--------|
|10--10--10-10-10--10--10--10-10-10-|7--7--7-7-7--7--7--7--7--|
|-8---8---8--8--8---8---8---8--8--8-|5--5--5-5-5--5--5--7--7--|
|-----------------------------------|-------------------7--7--|

|-------------------------|-------------------------|
|-------------------------|-------------------------|
|-------------------------|-------------------------|
|8--8--8-8-8--8--8--8-8-8-|8--8--8-8-8--8--8--8-8-8-|
|8--8--8-8-8--8--8--8-8-8-|8--8--8-8-8--8--8--8-8-8-|
|8--8--8-8-8--8--8--8-8-8-|8--8--8-8-8--8--8--8-8-8-|

|-----------------------------------|---------------------|
|-----------------------------------|---------------------|
|10--10--10-10-10--10--10--10-10-10-|7-7-7-7-7-7-7--------|
|10--10--10-10-10--10--10--10-10-10-|7-7-7-7-7-7-7--7--7--|
|-8---8---8--8--8---8---8---8--8--8-|5-5-5-5-5-5-5--7--7--|
|-----------------------------------|---------------7--7--|


Interlude

|--------------------|--------------------------|
|--------------------|--------------------------|
|7-------------------|--------------------------|
|7-------5h7--5h7p5--|3------3--------8--8p7-7--|
|5-----5-------------|3------3-3-3-3--8--8p7-7--|
|--------------------|3------3-3-3-3--8--8p7-7--|
                               PM---|


Verse 3

|------------------------|-------------------------|
|------------------------|-------------------------|
|7-----------------------|-------------------------|
|7-----7-----------7-----|3-----3--------8--8p7-7--|
|5--------5--3--5-----5--|3-----3-3-3-3--8--8p7-7--|
|------------------------|3-----3-3-3-3--8--8p7-7--|
                                  PM---|

|------------------------|-------------------------|
|------------------------|-------------------------|
|7-----------------------|-------------------------|
|7-----7-----------7-----|3-----3--------8--8p7-7--|
|5--------5-----5-----5--|3-----3-3-3-3--8--8p7-7--|
|------------------------|3-----3-3-3-3--8--8p7-7--|
                                  PM---|


Chorus 2

|-------------------------|-------------------------|
|-------------------------|-------------------------|
|-------------------------|-------------------------|
|8--8--8-8-8--8--8--8-8-8-|8--8--8-8-8--8--8--8-8-8-|
|8--8--8-8-8--8--8--8-8-8-|8--8--8-8-8--8--8--8-8-8-|
|8--8--8-8-8--8--8--8-8-8-|8--8--8-8-8--8--8--8-8-8-|

|-----------------------------------|-------------------------|
|-----------------------------------|-------------------------|
|10--10--10-10-10--10--10--10-10-10-|7--7--7-7-7--7--7--------|
|10--10--10-10-10--10--10--10-10-10-|7--7--7-7-7--7--7--7--7--|
|-8---8---8--8--8---8---8---8--8--8-|5--5--5-5-5--5--5--7--7--|
|-----------------------------------|-------------------7--7--|

|-------------------------|-------------------------|
|-------------------------|-------------------------|
|-------------------------|-------------------------|
|8--8--8-8-8--8--8--8-8-8-|8--8--8-8-8--8--8--8-8-8-|
|8--8--8-8-8--8--8--8-8-8-|8--8--8-8-8--8--8--8-8-8-|
|8--8--8-8-8--8--8--8-8-8-|8--8--8-8-8--8--8--8-8-8-|

|-----------------------------------|---------------------|
|-----------------------------------|---------------------|
|10--10--10-10-10--10--10--10-10-10-|7-7-7-7-7-7-7--------|
|10--10--10-10-10--10--10--10-10-10-|7-7-7-7-7-7-7--7--7--|
|-8---8---8--8--8---8---8---8--8--8-|5-5-5-5-5-5-5--7--7--|
|-----------------------------------|---------------7--7--|


Bridge

|-------------------------------|-------------------------|
|-------------------------------|-------------------------|
|-------------------------------|-------------------------|
|0------------------------------|-------------------------|
|0------------------------------|-------------------------|
|0--0-0-0--0-0-0--0-0-0--0-0-0--|0-0-0--0-0-0--0-0-0--0-0-|
    PM---------------------------------------------------|

|---------------------------------------------------------|
|---------------------------------------------------------|
|---------------------------------------------------------| (two guitars)
|2/3-3-3--3-3-3/5-5-5--5-5-5/7-7-7--7-7-7/8---8--8---8--8-|
|3/5-5-5--5-5-5/7-7-7--7-7-7/8-8-8--8-8-8/10-10-10--10-10-|
|---------------------------------------------------------|


Chorus 3

|-------------------------|-------------------------|
|-------------------------|-------------------------|
|-------------------------|-------------------------|
|8--8--8-8-8--8--8--8-8-8-|8--8--8-8-8--8--8--8-8-8-|
|8--8--8-8-8--8--8--8-8-8-|8--8--8-8-8--8--8--8-8-8-|
|8--8--8-8-8--8--8--8-8-8-|8--8--8-8-8--8--8--8-8-8-|
                                                                 Play
|-----------------------------------|-------------------------|   3x
|-----------------------------------|-------------------------|
|10--10--10-10-10--10--10--10-10-10-|7--7--7-7-7--7--7--------|
|10--10--10-10-10--10--10--10-10-10-|7--7--7-7-7--7--7--7--7--|
|-8---8---8--8--8---8---8---8--8--8-|5--5--5-5-5--5--5--7--7--|
|-----------------------------------|-------------------7--7--|

|-------------------------|-------------------------|
|-------------------------|-------------------------|
|-------------------------|-------------------------|
|8--8--8-8-8--8--8--8-8-8-|8--8--8-8-8--8--8--8-8-8-|
|8--8--8-8-8--8--8--8-8-8-|8--8--8-8-8--8--8--8-8-8-|
|8--8--8-8-8--8--8--8-8-8-|8--8--8-8-8--8--8--8-8-8-|

|-----------------------------------|---------------------|
|-----------------------------------|---------------------|
|10--10--10-10-10--10--10--10-10-10-|7-7-7-7-7-7-7--------|
|10--10--10-10-10--10--10--10-10-10-|7-7-7-7-7-7-7--7--7--|
|-8---8---8--8--8---8---8---8--8--8-|5-5-5-5-5-5-5--7--7--|
|-----------------------------------|---------------7--7--|


Outro

|-------------------------------|-------------------------|
|-------------------------------|-------------------------|
|-------------------------------|-------------------------|
|0------------------------------|-------------------------|
|0------------------------------|-------------------------|
|0--0-0-0--0-0-0--0-0-0--0-0-0--|0-0-0--0-0-0--0-0-0--0-0-|
    PM---------------------------------------------------|

|-------------------------------------------------------|
|-------------------------------------------------------|
|-------------------------------------------------------| (two guitars)
|2/3-3-3--3-3-3/5-5-5--5-5-5/7-7-7--7-7-7/8---8--8--7-5-|
|3/5-5-5--5-5-5/7-7-7--7-7-7/8-8-8--8-8-8/10-10-10--8-7-|
|-------------------------------------------------------|


Guitar 1

|-------------------------------|-------------------------|
|-------------------------------|-------------------------|
|-------------------------------|-------------------------|
|-------------------------------|-------------------------|
|-------------------------------|-------------------------|
|0--0-0-0--0-0-0--0-0-0--0-0-0--|0-0-0--0-0-0--0-0-0--0-0-|
 PM------------------------------------------------------|
                                                              Play 2x
|-------------------------------|-------------------------|
|-------------------------------|-------------------------|
|-------------------------------|-------------------------|
|-------------------------------|-------------------------|
|-------------------------------|-------------------------|
|1--1-1-1--1-1-1--1-1-1--1-1-1--|1-1-1--1-1-1--1-1-1--1-1-|
 PM------------------------------------------------------|

Guitar 2

|----------------|----------------|-----------------|----------------|
|----------------|----------------|-----------------|----------------|
|----------------|----------------|-----------------|----------------|
|-----14---------|---14-----------|-15--------17--15|--14------------|
|12--------12--12|--------12--13--|------13---------|----------------|
|----------------|----------------|-----------------|----------------|

|----------------|-----------------|------------------|--------------|
|----------------|-----------------|------------------|--------------|
|----------------|-----------------|------------------|--------------|
|-----14---------|---14------------|------------------|--------------|
|12--------12--12|--------12--12h13|--12h13---10-12-13|----12----10--|
|----------------|-----------------|------------------|--------------|


Both guitars

|----------------------|
|----------------------|
|----------------------|
|0---------------------|
|0---------------------|
|0---------------------|

Hope that's good. Sounds right to me





Comments


Popular Volbeat tabs & chords
Heaven Nor Hell Bass Tabs
Lola Montez Chords
Still Counting Chords
Doc Holliday Tabs
Gardens Tale Tabs
Gardens Tale Intro Tabs
Heaven Nor Hell Tabs
Heaven Nor Hell 2 Tabs
Maybellene I Hofteholder Tabs
Somthing Else Or Intro Tabs


Song lyrics



↑ Back to top | Tablatures and chords are parodies/interpretations of the original songs. You may use it for private study, scholarship, research or language learning purposes only
© 2014 AZChords.com Contact us | Privacy policy | DMCA | Add/correct tabs | Request tabs | Top 50 tabs