» » »

Volbeat, Something Else Or.. Tabs (ver.1)

Artists:  A B C D E F G H I J K L M N O P Q R S T U V W X Y Z # 

Something Else Or.. Tabs (ver.1)

Volbeat Tabs
 Rating:
4/5 (4 votes)
Something Else Or.. lessons Tabs too difficult? Try these video lessons and learn fast
1
                		         VOLBEAT - SOMETHING ELSE OR
               from the album - THE STRENGTH/THE SOUND/THE SONGS





Tuning: DADGBe 




Intro: Played over Em G Am
e|---------------------------------------------------------------------------|
B|---------------------------------------------------------------------------|
G|---------------------------------------------------------------------------|
D|---------------------------------------------------------------------------|
A|-----------------------------------3p0-3h5---------------------------------|
D|-7---777-5-77/87-5-3/55-5-3-5/77-----------7-------------------------------|


e|-----------------------------------------------------------------------------------|
B|-----------------------------------------------------------------------------------|
G|----------------88888888888888887777777777777777888888888888888877777777-----------|
D|----------------88888888888888887777777777777777888888888888888877777777-3p0-------|
A|000000000000000066666666666666665555555555555555666666666666666655555555----3p0----|
D|0000000000000000---------------------------------------------------------------5-3-|


e|---------------------------------------------------------------------------|
B|---------------------------------------------------------------------------|
G|8888888888888888777777777777777788888888888888887777777777777777-----------|
D|8888888888888888777777777777777788888888888888887777777777777777-----------|
A|6666666666666666555555555555555566666666666666665555555555555555-5----3----|
D|-----------------------------------------------------------------5----3----|


      
e|----------------------------------------------------------------------------|
B|----------------------------------------------------------------------------|
G|----------------------------------------------------------------------------|
D|------------------------------77-7777777777777777---------------------------|
A|00--0--0--0--00-0--00--00--00-55-55555555555555555555555533333333-----------|
D|00--0--0--0--00-0--00--00--00--------------------5555555533333333-----------|  
      x     x        xx      xx xx xxxxxxxxxxxxxxxxxxxxxxxxxxxxxxxx




e|---------------------------------------------------------------------------|
B|---------------------------------------------------------------------------|
G|---------------------------------------------------------------------------|
D|7777777777777777----------------7777777777777777---------------------------|
A|5555555555555555555555553333333355555555555555555555555533333333-----------|
D|0000000000000000555555553333333300000000000000005555555533333333-----------|
  xxxxxxxxxxxxxxxxxxxxxxxxxxxxxxxxxxxxxxxxxxxxxxxxxxxxxxxxxxxxxxxx



e|---------------------------------------------------------|
B|---------------------------------------------------------|
G|---------------------------------------------------------|
D|7777777777777777-----------------------------------------|
A|55555555555555555555555533333333333333333333333333333333-|
D|00000000000000005555555533333333333333333333333333333333-| 
  xxxxxxxxxxxxxxxxxxxxxxxxxxxxxxxxxxxxxxxxxxxxxxxxxxxxxxxx


e|-------------------------------------------------------------------|
B|-------------------------------------------------------------------|
G|88888888888888887777777777777777888888888888888877777777-----------|
D|88888888888888887777777777777777888888888888888877777777-3p0-------|
A|66666666666666665555555555555555666666666666666655555555----3p0----|
D|---------------------------------------------------------------5-3-|


e|---------------------------------------------------------------------------|
B|---------------------------------------------------------------------------|
G|8888888888888888777777777777777788888888888888887777777777777777-----------|
D|8888888888888888777777777777777788888888888888887777777777777777-----------|
A|6666666666666666555555555555555566666666666666665555555555555555-5----3----|
D|-----------------------------------------------------------------5----3----|


       
e|-------------------------------------------|
B|-------------------------------------------|
G|-------------------------------------------|
D|-------------------------------------------|
A|00--0--0--0--00-0--00--00--00-5----3----0--|
D|00--0--0--0--00-0--00--00--00-5----3----0--|
      x     x        xx      xx           x 


     played over Em G Am
e|---------------------------------------------------------------------------|
B|---------------------------------------------------------------------------|
G|---------------------------------------------------------------------------|
D|---------------------------------------------------------------------------|
A|-----------------------------------3p0-3h5---------------------------------|
D|-7---777-5-77/87-5-3/55-5-3-5/77-----------7-------------------------------|



e|-----------------------------------------------------------------------------------|
B|-----------------------------------------------------------------------------------|
G|----------------88888888888888887777777777777777888888888888888877777777-----------|
D|----------------88888888888888887777777777777777888888888888888877777777-3p0-------|
A|000000000000000066666666666666665555555555555555666666666666666655555555----3p0----|
D|0000000000000000---------------------------------------------------------------5-3-|



e|-------------------------------------------------------------------|
B|-------------------------------------------------------------------|
G|8888888888888888777777777777777788888888888888887777777777777777---|
D|8888888888888888777777777777777788888888888888887777777777777777---|
A|6666666666666666555555555555555566666666666666665555555555555555---|
D|-------------------------------------------------------------------|



e|-----------------------------------------------------|
B|-----------------------------------------------------|
G|88888888888888887777777777777777---------------------|
D|88888888888888887777777777777777-3P0-----------------|
A|66666666666666665555555555555555----3P0----5----3----|
D|---------------------------------------5-3-5----3----|



   
e|-------------------------------------------------------------------------|
B|-------------------------------------------------------------------------|
G|-------------------------------------------------------------------------|
D|-------------------------------------------------------------------------|
A|00--0--0--0--00-0--00--00--00-5----3----00--0--0--0--00-0--00--3H5p3-----|
D|00--0--0--0--00-0--00--00--00-5----3----00--0--0--0--00-0--00-------5p3--|
      x     x        xx      xx               x     x        xx 


 
e|-------------------------------------------------------------------------|
B|-------------------------------------------------------------------------|
G|-------------------------------------------------------------------------|
D|-------------------------------------------------------------------------|
A|00--0--0--0--00-0--00--00--00--3H5p3----00--0--0--0--00-0--00--3H5p3-----|
D|00--0--0--0--00-0--00--00--00-------5p3-00--0--0--0--00-0--00-------5p3--|REPEAT 6X    
      x     x        xx      xx               x     x        xx          



                    
e|------------------------------------------|
B|------------------------------------------|
G|------------------------------------------|
D|------------------------------------------|
A|00--0--0--0--00-0--00--00--00--3H5p3----0-|
D|00--0--0--0--00-0--00--00--00-------5p3-0-|
      x     x        xx      xx



| /  slide up
| \  slide down
| h  hammer-on
| p  pull-off
| ~  vibrato
| +  harmonic
| x  Mute note
            
Submit corrections

comments powered by Disqus
↑ Back to top | Volbeat Tabs for Something Else Or... Lyrics for acoustic guitar and electric guitar. 1 Tablatures and chords are parodies/interpretations of the original songs. You may use it for private study, scholarship, research or language learning purposes only