» » »

Volbeat, Sad Man Tongue Tabs (ver.1)

Artists:  A B C D E F G H I J K L M N O P Q R S T U V W X Y Z # 

Sad Man Tongue Tabs (ver.1)

Volbeat Tabs
Rating:
0/5 (0 votes)
Sad Man Tongue lessons Tabs too difficult? Try these video lessons and learn fast
                
Tuning: Standard D tuning

  INTRO

e|-------------------------------------------------------------------------|
B|-------------------------------------------------------------------------|
G|-9-9-99999-9-99999-9-99999-9-9-7-9-9-99999-9-99999-9-99999-9-9-7---------|
D|-9-9-99999-9-99999-9-99999-9-9-7-9-9-99999-9-99999-9-99999-9-9-7---------|
A|-7-7-77777-7-77777-7-77777-7-7-5-7-7-77777-7-77777-7-77777-7-7-5---------|
E|-------------------------------------------------------------------------|

e|-------------------------------------------------------------------------|
B|-------------------------------------------------------------------------|
G|-9-9-99999-9-99999-9-99999-9-9-7-9-9-99999-9-99999-9-99999-9-9-7---------|
D|-9-9-99999-9-99999-9-99999-9-9-7-9-9-99999-9-99999-9-99999-9-9-7---------|
A|-7-7-77777-7-77777-7-77777-7-7-5-7-7-77777-7-77777-7-77777-7-7-5---------|
E|-------------------------------------------------------------------------|

e|-------------------------------------------------------------------------|
B|-------------------------------------------------------------------------|
G|-9-9-99999-9-99999-9-99999-9-9-7-9-9-99999-9-99999-9-99999-9-9-9---------|
D|-9-9-99999-9-99999-9-99999-9-9-7-9-9-99999-9-99999-9-99999-9-9-9---------|
A|-7-7-77777-7-77777-7-77777-7-7-5-7-7-77777-7-77777-7-77777-7-7-7---------|
E|-------------------------------------------------------------------------|

e|-------------------------------------------------------------------------|
B|-------------------------------------------------------------------------|
G|---------------------------------9-9-99999-9-9-7-9-9-99999-9-9-9---------|
D|-7-7-77777-7-7-5-7-7-77777-7-7-7-9-9-99999-9-9-7-9-9-99999-9-9-9---------|
A|-7-7-77777-7-7-5-7-7-77777-7-7-7-7-7-77777-7-7-5-7-7-77777-7-7-7---------|
E|-5-5-55555-5-5-3-5-5-55555-5-5-5-----------------------------------------|

e|---------------------------------------------------------------------------|
B|---------------------------------------------------------------------------|
G|---------------------------------9-9-99999-9-99999999999999999999----------|
D|-99999999999999999---------------9-9-99999-9-99999999999999999999----------|
A|-99999999999999999---------------7-7-77777-7-77777777777777777777----------|
E|-77777777777777777---------------------------------------------------------|

  Verse

e|-------------------------------------------------------------------------|
B|-------------------------------------------------------------------------|
G|-9-9-99999-9-99999-9-99999-9-9-7-9-9-99999-9-99999-9-99999-9-9-9---------|
D|-9-9-99999-9-99999-9-99999-9-9-7-9-9-99999-9-99999-9-99999-9-9-9---------|
A|-7-7-77777-7-77777-7-77777-7-7-5-7-7-77777-7-77777-7-77777-7-7-7---------|
E|-------------------------------------------------------------------------|

e|-------------------------------------------------------------------------|
B|-------------------------------------------------------------------------|
G|---------------------------------9-9-99999-9-9-7-9-9-99999-9-9-9---------|
D|-7-7-77777-7-7-5-7-7-77777-7-7-7-9-9-99999-9-9-7-9-9-99999-9-9-9---------|
A|-7-7-77777-7-7-5-7-7-77777-7-7-7-7-7-77777-7-7-5-7-7-77777-7-7-7---------|
E|-5-5-55555-5-5-3-5-5-55555-5-5-5-----------------------------------------|

e|-------------------------------------------------------------------------|
B|-------------------------------------------------------------------------|
G|--------------------------------9-9-99999-9-99999-9-99999-9-9999---------|
D|-99999999999999999--------------9-9-99999-9-99999-9-99999-9-9999---------|
A|-99999999999999999--------------7-7-77777-7-77777-7-77777-7-7777---------|
E|-77777777777777777-------------------------------------------------------|

This is how the first verse ends, the second and the third is ending as shown below

e|-------------------------------------------------------------------------|
B|-------------------------------------------------------------------------|
G|-------------------------------------------------------------------------|
D|-99999999999999999-------------------------------------------------------|
A|-99999999999999999-------------------------------------------------------|
E|-77777777777777777-------------------------------------------------------|

  Bridge

e|-------------------------------------------------------------------------|
B|-------------------------------------------------------------------------|
G|-------------------------------------------------------------------------|
D|-2-2-x2-2-x2-626-2-x2-x2-x2-2626-2-x2-x2-x2-2626-2-x2-x2-x2-22-5---------|
A|-2-2-x2-2-x2-626-2-x2-x2-x2-2626-2-x2-x2-x2-2626-2-x2-x2-x2-22-5---------|
E|-0-0-x0-0-x0-404-0-x0-x0-x0-0404-0-x0-x0-x0-0404-0-x0-x0-x0-00-3---------|

e|-------------------------------------------------------------------------|
B|-------------------------------------------------------------------------|
G|-------------------------------------------------------------------------|
D|-7-x7-x7-x7-77-5-7-x7-x7-x7-77-5-2-x2-x2-x2-2626-2-x2-x2-x2-25-7---------|
A|-7-x7-x7-x7-77-5-7-x7-x7-x7-77-5-2-x2-x2-x2-2626-2-x2-x2-x2-25-7---------|
E|-5-x5-x5-x5-55-3-5-x5-x5-x5-55-3-0-x0-x0-x0-0404-0-x0-x0-x0-03-5---------|

e|-------------------------------------------------------------------------|
B|-------------------------------------------------------------------------|
G|-------------------------------------------------------------------------|
D|-99999999999999999-------9-7-5---2-22222-2-22222-2-22222-2-22222---------|
A|-99999999999999999-------9-7-5---2-22222-2-22222-2-22222-2-22222---------|
E|-77777777777777777-------7-5-3---0-00000-0-00000-0-00000-0-00000---------|

  Interlude

e|---------------------------------------------------------------------------|
B|---------------------------------------------------------------------------|
G|---------------------------------------------------------------------------|
D|-2-25-2-25-2-5-2-25-2-25-2-5-2-25-2-25-2-5-2-25-2-25-2-5-------------------|
A|-2-25-2-25-2-5-2-25-2-25-2-5-2-25-2-25-2-5-2-25-2-25-2-5-------------------|
E|-0-03-0-03-0-3-0-03-0-03-0-3-0-03-0-03-0-3-0-03-0-03-0-3-------------------|

e|-------------------------------------------------------------------------|
B|-------------------------------------------------------------------------|
G|-------------------------------------------------------------------------|
D|-2-25-2-25-2-5-2-25-2-25-2-5-2-25-2-25-2-5-2-25-2-25-2-5-----------------|
A|-2-25-2-25-2-5-2-25-2-25-2-5-2-25-2-25-2-5-2-25-2-25-2-5-----------------|
E|-0-03-0-03-0-3-0-03-0-03-0-3-0-03-0-03-0-3-0-03-0-03-0-3-----------------|

e|-------------------------------------------------------------------------|
B|-------------------------------------------------------------------------|
G|-------------------------------------------------------------------------|
D|-77777777777777777777777777777777----------------------------------------|
A|-77777777777777777777777777777777----------------------------------------|
E|-55555555555555555555555555555555----------------------------------------|

  Solo (rhythm guitar)
e|-------------------------------------------------------------------------|
B|-------------------------------------------------------------------------|
G|-9-9-99999-9-99999-9-99999-9-9999----------------------------------------|
D|-9-9-99999-9-99999-9-99999-9-99999-999999999999999-------9-7-5-----------|
A|-7-7-77777-7-77777-7-77777-7-77779-999999999999999-------9-7-5-----------|
E|---------------------------------7-777777777777777-------7-5-3-----------|


e|-------------------------------------------------------------------------|
B|-------------------------------------------------------------------------|
G|-------------------------------------------------------------------------|
D|-2-2-22222-2-22222-2-22222-2-2222----------------------------------------|
A|-2-2-22222-2-22222-2-22222-2-2222----------------------------------------|
E|-0-0-00000-0-00000-0-00000-0-0000----------------------------------------|

  Ending
e|-------------------------------------------------------------------|
B|-------------------------------------------------------------------|
G|-------------------------------------------------------------------|
D|-2-----------------------------------------------------------------|
A|-2-----------------------------------------------------------------|
E|-0-----------------------------------------------------------------|

| /  slide up
| \  slide down
| h  hammer-on
| p  pull-off
| ~  vibrato
| +  harmonic
| x  Mute note

Play order:

Intro
Verse 1
Bridge
Verse 2
Interlude
Solo
Verse 3
Ending

My first tab ever, so this may be incorrect, but it shouldn't be too bad. Maybe I'll 
the solo one day aswell, but for now let's leave that one blank. Have fun
            

comments powered by Disqus
↑ Back to top | Volbeat Tabs for Sad Man Tongue. Lyrics for acoustic guitar and electric guitar. Tablatures and chords are parodies/interpretations of the original songs. You may use it for private study, scholarship, research or language learning purposes only