» » »

Volbeat, Radio Girl Tabs (ver.1)

Artists:  A B C D E F G H I J K L M N O P Q R S T U V W X Y Z # 

Radio Girl Tabs (ver.1)

Volbeat Tabs
Rating:
0/5 (0 votes)
Hard to play? Try these video lessons and learn fast.
                Tuning:Tune down 1/2 step (low to high D#,G#,C#,F#,A#,D#)

Intro:

D#|---------------------------|G
A#|---------------------------|U
F#|---7-----------------------|I
C#|---7-----9-----5-----7-----|T
G#|---5-----9-----5-----7-----|A
D#|---------7-----3-----5-----|R

Verse:

D#|-------------------------------|G
A#|-------------------------------|U
F#|---777777----------------------|I
C#|---777777-99999-55555-77777----|T
G#|---555555-99999-55555-77777----|A
D#|----------77777-33333-55555----|R

Chorus:

D#|-------------------------------|G
A#|-------------------------------|U
F#|---------------77777-----------|I
C#|---55555-77777-77777-99999-----|T
G#|---55555-77777-55555-99999-----|A
D#|---33333-55555-------77777-----|R

Breakdown:

Part1:
D#|-----------------------------------|
A#|-----------------------------------|
F#|-----------------------------------|
C#|-----------------------------------|
G#|-------------4-4-4454-4-----4-4-45-|
D#|---2222222222-2-2----2-22222-2-2---|

Part2:
D#|------------------------------------|G
A#|------------------------------------|U
F#|------------------------------------|I
C#|-----------------------------54-----|T
G#|-------------5-5-557545-----5-------|A
D#|---3333333333-3-3------33333--------|R

Part3:
D#|-----------------------------------------------------|G
A#|-----------------------------------------------------|U
F#|-----------------------------------------------------|I
C#|-----------4--4--------4--4--------5--5--------------|T
G#|---24-444444444-542-4444444-45555555555-7545-3/2-45--|A
D#|---02-222222222-320-2222242-23333333333-5323----323--|R
P.M.-----*****-**-------**-**----*****-**---------------|
            

comments powered by Disqus
↑ Back to top | Volbeat Tabs for Radio Girl. Lyrics for acoustic guitar and electric guitar. Tablatures and chords are parodies/interpretations of the original songs. You may use it for private study, scholarship, research or language learning purposes only