» » »

Volbeat, Maybellene I Hofteholder Tabs (ver.1)

Artists:  A B C D E F G H I J K L M N O P Q R S T U V W X Y Z # 

Maybellene I Hofteholder Tabs (ver.1)

Volbeat Tabs
 Rating:
4/5 (4 votes)
Maybellene I Hofteholder lessons Tabs too difficult? Try these video lessons and learn fast
                



Tuning: Standard

I didn't manage to sync the lyrics with the tab but the chords above the lyrics 
should be accurate.
This is probably not 100% correct but it works ok annyway.

First verse is one clean guitar picking the chords and one distorted guitar playing the melody 
the rest of the song are both guitars distorted. I have writen down the tab for 
the first guitar and the 
second guitar plays the same as the tab sometimes and sometimes it plays the 
chords (powerchords through
 the hole song), listen to the song its not that hard to figure out youreself.



                                  C                        
                                  Saturday           I love you like
e|----------3--------------3--------------3--------------3-------------------|
B|----------5--------------5--------------5--------------5-------------------|
G|--------5---5----------5---5----------5---5----------5---5-----------------|
D|------5-------5------5-------5------5-------5------5-------5---------------|
A|--3-3------------3-3------------3-3------------3-3-------------------------|
E|---------------------------------------------------------------------------|
 |
e|---------------------------------------------------------------------------|
B|---------------------------------------------------------------------------|
G|--------------------------------7\9-9---------------9--9--7----------------|
D|---------------------------------------------------------------10----------|
A|---------------------------------------------------------------------------|
E|---------------------------------------------------------------------------|

    Am                            Dm                           
    gold               Not like the Monday, you pass like a    
e|----------------------------------------5--------------5-------------------|
B|----------5--------------5--------------6--------------6-------------------|
G|----------5--------------5------------7---7----------7---7-----------------|
D|--------7---7----------7---7--------7-------7------7-------7---------------|
A|------7-------7------7-------7--5-5------------5-5-------------------------|
E|--5-5------------5-5-------------------------------------------------------|
 |
e|---------------------------------------------------------------------------|
B|---------------------------------------------------------------------------|
G|-------------------5h7------9-9h 10------------10--10--9--7----------------|
D|--7----7--7/5--------------------------------------------------------------|
A|---------------7-----------------------------------------------------------|
E|---------------------------------------------------------------------------|

  G
  Ghost
e|---------------------------------------------------------------------------|
B|----------3--------------3-------------------------------------------------|
G|----------4--------------4-------------------------------------------------|
D|--------5---5----------5---5-----------------------------------------------|
A|------5-------5------5-------5---------------------------------------------|
E|--3-3------------3-3-------------------------------------------------------|
 |
e|---------------------------------------------------------------------------|
B|---------------------------------------------------------------------------|
G|---------------------------------------------------------------------------|
D|--9--------------10-10p9--9-9\5--5-----------------------------------------|
A|---------------------------------------------------------------------------|
E|---------------------------------------------------------------------------|

   C			   Am  
The fire killed you like a motherless child I saw you last
e|----------3--------------3-------------------------------------------------|
B|----------5--------------5--------------5--------------5-------------------|
G|--------5---5----------5---5------------5--------------5-------------------|
D|------5-------5------5-------5--------7---7----------7---7-----------------|
A|--3-3------------3-3----------------7-------7------7-------7---------------|
E|--------------------------------5-5------------5-5-------------------------|
 |
e|---------------------------------------------------------------------------|
B|---------------------------------------------------------------------------|
G|--\9-9---9--9--7h9p7------------------------5--7--9------------------------|
D|----------------------10p7---7--7---7p5------------------------------------|
A|-----------------------------------------7---------------------------------|
E|---------------------------------------------------------------------------|

    Dm				     G
    Sunday             at Barbara Hotel...
e|-----------5--------------5------------------------------------------------|
B|-----------6--------------6----------------3--------------3----------------|
G|---------7---7----------7---7--------------4--------------4----------------|
D|-------7-------7------7-------7----------5---5----------5---5--------------|
A|---5-5------------5-5------------------5-------5------5-------5------------|
E|-----------------------------------3-3------------3-3----------------------|
 |
e|---------------------------------------------------------------------------|
B|---------------------------------------------------------------------------|
G|--9h10------------------10-10--9--7----------------------------------------|
D|-----------------------------------9-------10--10p9--9--9\5--5-------------|
A|---------------------------------------------------------------------------|
E|---------------------------------------------------------------------------|

    C				  Am	
    Oh  oh  oh  oh  oh- oh    			    babe I'm so 
e|----------3--------------3-------------------------------------------------|
B|----------5--------------5--------------5--------------5-------------------|
G|--------5---5----------5---5------------5--------------5-------------------|
D|------5-------5------5-------5--------7---7----------7---7-----------------|
A|--3-3------------3-3----------------7-------7------7-------7---------------|
E|--------------------------------5-5------------5-5-------------------------|
 |
e|---------------------------------------------------------------------------|
B|---------------------------------------------------------------------------|
G|----------------------------------------------------7--9-------------------|
D|--10------10--9h10p9--7-----7--7--9--10--9--7---10-------------------------|
A|------10-------------------------------------------------------------------|
E|---------------------------------------------------------------------------|

     Dm					
     sorry, I know where to go...
e|-----------5--------------5------------------------------------------------|
B|-----------6--------------6----------------3--------------3----------------|
G|---------7---7----------7---7--------------4--------------4----------------|
D|-------7-------7------7-------7----------5---5----------5---5--------------|
A|---5-5------------5-5------------------5-------5------5-------5------------|
E|-----------------------------------3-3------------3-3----------------------|
 |
e|---------------------------------------------------------------------------|
B|---------------------------------------------------------------------------|
G|--9h10--10--10--9--7-------------------------------------------------------|
D|----------------------9-------10--10\9--9--9\5--5----10--------------------|
A|---------------------------------------------------------------------------|
E|---------------------------------------------------------------------------|




    C                                          Am
    Could scream like a pig, Could bark like a dog
e|---------------------------------------------------------------------------|
B|---------------------------------------------------------------------------|
G|---------------------------------------------------------------------------|
D|--5-5----------------5-5----------5-5--------------------------------------|
A|--3-3----------------3-3----------3-3--------7-7-----------7-7--------7-7--|
E|---------------------------------------------5-5-----------5-5--------5-5--|

    Dm                                       G
    Just to get attention as I'm chasing you down the hall
e|---------------------------------------------------------------------------|
B|---------------------------------------------------------------------------|
G|---------------------------------------------------------------------------|
D|--7-7-----------7-7------------7-7-----------------------------------------|
A|--5-5-----------5-5------------5-5---------5-5------------5-5-5-5-5-5-5----|
E|-------------------------------------------3-3------------3-3-3-3-3-3-3----|

    C                               Am
    Oh  Maybelenne you've been so   lonely
e|---------------------------------------------------------------------------|
B|---------------------------------------------------------------------------|
G|---------------------------------------------------------------------------|
D|--5-5-5-5-5-5-5-5-5-5-5-5-5-5-5-5------------------------------------------|
A|--3-3-3-3-3-3-3-3-3-3-3-3-3-3-3-3-7-7-7-7-7-7-7-7-7--------7---5h7---------|
E|----------------------------------5-5-5-5-5-5-5-5-----5--------------------|

    Dm                                    G
    Got a fire burning as I'm smoking you out again...
e|---------------------------------------------------------------------------|
B|---------------------------------------------------------------------------|
G|---------------------------------------------------------------------------|
D|--7-7-7-7-7-7-7-7-7-7-7-7-7-7-7-7------------------------------------------|
A|--5-5-5-5-5-5-5-5-5-5-5-5-5-5-5-5--5-5-5-5-5-5-5-5-5-------5----3h5--------|
E|-----------------------------------3-3-3-3-3-3-3-3-----3-------------------|

    C                                 Am
    Still all the leaves will keep on falling
e|---------------------------------------------------------------------------|
B|---------------------------------------------------------------------------|
G|---------------------------------------------------------------------------|
D|--5-5-5-5-5-5-5-5-5-5-5-5-5-5-5-5------------------------------------------|
A|--3-3-3-3-3-3-3-3-3-3-3-3-3-3-3-3-7-7-7-7-7-7-7-7-7--------7---5h7---------|
E|----------------------------------5-5-5-5-5-5-5-5-----5--------------------|

    Dm                                   G
    Until I see you dancing on the table 45 again
e|---------------------------------------------------------------------------|
B|---------------------------------------------------------------------------|
G|---------------------------------------------------------------------------|
D|--7-7-7-7-7-7-7-7-7-7-7-7-7-7-7-7------------------------------------------|
A|--5-5-5-5-5-5-5-5-5-5-5-5-5-5-5-5--5-5-5-5-5-5-5-5-5-------5----3h5--------|
E|-----------------------------------3-3-3-3-3-3-3-3-----3-------------------|





    F                          C
   (I) see you dancing for the young ones oh oh oh
e|---------------------------------------------------------------------------|
B|---------------------------------------------------------------------------|
G|---------------------------------------------------------------------------|
D|-----------------------------5-5-5-5-5--5----4-----------------------------|
A|--3-3-3-3-3----3-3-3-3-3-----3-3-3-3-3--3----2-----------------------------|
E|--1-1-1-1-1----1-1-1-1-1---------------------------------------------------|

    F                          C
    Maybellene      I          Hofteholder
e|---------------------------------------------------------------------------|
B|---------------------------------------------------------------------------|
G|---------------------------------------------------------------------------|
D|-----------------------------5-5-5-5-5--5----4-----------------------------|
A|--3-3-3-3-3----3-3-3-3-3-----3-3-3-3-3--3----2-----------------------------|
E|--1-1-1-1-1----1-1-1-1-1---------------------------------------------------|

    Am                              F
    Could   you   be   the   only   one
e|---------------------------------------------------------------------------|
B|---------------------------------------------------------------------------|
G|---------------------------------------------------------------------------|
D|---------------------------------------------------------------------------|
A|--7-7-7-7-7-7-7-7-7-7-7-7-7-7-7-7-3-3-3-3-3--------------------------------|
E|--5-5-5-5-5-5-5-5-5-5-5-5-5-5-5-5-1-1-1-1-1--------------------------------|

                           G
    Well I beg you to come home
e|---------------------------------------------------------------------------|
B|---------------------------------------------------------------------------|
G|---------------------------------------------------------------------------|
D|---------------------------------------------------------------------------|
A|--3-3-3-3-3-3-3-3-3-3-3-5-5-5-5-5-5-5-5-5-5-5-5-5-5-5-5--------------------|
E|--1-1-1-1-1-1-1-1-1-1-1-3-3-3-3-3-3-3-3-3-3-3-3-3-3-3-3--------------------|

                          C 
    Dance forever my only one
e|---------------------------------------------------------------------------|
B|---------------------------------------------------------------------------|
G|---------------------------------------------------------------------------|
D|---------------------------------------------------------------------------|
A|--5------------------------------------------------------------------------|
E|--3------------------------------------------------------------------------|
    





    C         Am              C              Am            Dm         F
e|---------------------------------------------------------------------------|
B|---------------------------------------------------------------------------|
G|---------------------------------------------------------------------------|
D|--5-5-5-5-5-5-5-5-5-5-5-5-5-5-4-4-4----------------------------------------|
A|--3-3-3-3-3-3-3-3-3-3-3-3-3-3-2-2-2-7-7-7-7-7--7---7---7---7---5h7---------|
E|------------------------------------5-5-5-5-5----5---5---5---5-------------|

    C			    Am 
e|---------------------------------------------------------------------------|
B|---------------------------------------------------------------------------|
G|--------------------5------------------------------------------------------|
D|--5-5-5-5-5-5---5-----5----------------------------------------------------|
A|--3-3-3-3-3---3---3-----3-7-7-7-7-7-7---7---7---5h7------------------------|
E|--------------------------5-5-5-5-5---5---5---5----------------------------|

    Dm	 		    G
e|---------------------------------------------------------------------------|
B|-------------------------3---3---3---3---3---------------------------------|
G|----2---2---2---2---2------------------------------------------------------|
D|-----------------------5---5---5---5---5-----------------------------------|
A|--5---5---5---5---5--------------------------------------------------------|
E|---------------------------------------------------------------------------|






    C                                          Am
    Could scream like a pig, Could bark like a dog
e|---------------------------------------------------------------------------|
B|---------------------------------------------------------------------------|
G|---------------------------------------------------------------------------|
D|--5-5----------------5-5---------------------------------------------------|
A|--3-3----------------3-3-------------------7-7-7-7-7-7-7-7-7--7---7-5h7----|
E|-------------------------------------------5-5-5-5-5-5-5-5-5----5----------|

    Dm                                       G
    Just to get attention as I'm chasing you down the hall
e|---------------------------------------------------------------------------|
B|---------------------------------------------------------------------------|
G|---------------------------------------------------------------------------|
D|--7-7-7-7-7-7-7-7-7-7-7-7-7------------------------------------------------|
A|--5-5-5-5-5-5-5-5-5-5-5-5-5-5-5-5-5-5-5-5-5-5-5-5---5-3h5------------------|
E|----------------------------3-3-3-3-3-3-3-3-3-3---3------------------------|

    C                               Am
    Oh  Maybelenne you've been so   lonely
e|---------------------------------------------------------------------------|
B|---------------------------------------------------------------------------|
G|---------------------------------------------------------------------------|
D|--5-5-5-5-5-5-5-5-5-5-5-5-5-5-5-5------------------------------------------|
A|--3-3-3-3-3-3-3-3-3-3-3-3-3-3-3-3-7-7-7-7-7-7-7-7-7--------7---5h7---------|
E|----------------------------------5-5-5-5-5-5-5-5-----5--------------------|

    Dm                                    G
    Got a fire burning as I'm smoking you out again...
e|---------------------------------------------------------------------------|
B|---------------------------------------------------------------------------|
G|---------------------------------------------------------------------------|
D|--7-7-7-7-7-7-7-7-7-7-7-7-7-7-7-7------------------------------------------|
A|--5-5-5-5-5-5-5-5-5-5-5-5-5-5-5-5--5-5-5-5-5-5-5-5-5-------5----3h5--------|
E|-----------------------------------3-3-3-3-3-3-3-3-----3-------------------|







    F                          C
   (I) see you dancing for the young ones oh oh oh
e|---------------------------------------------------------------------------|
B|---------------------------------------------------------------------------|
G|---------------------------------------------------------------------------|
D|-----------------------------5-5-5-5-5--5----4-----------------------------|
A|--3-3-3-3-3----3-3-3-3-3-----3-3-3-3-3--3----2-----------------------------|
E|--1-1-1-1-1----1-1-1-1-1---------------------------------------------------|

    F                          C
    Maybellene      I          Hofteholder
e|---------------------------------------------------------------------------|
B|---------------------------------------------------------------------------|
G|---------------------------------------------------------------------------|
D|-----------------------------5-5-5-5-5--5----4-----------------------------|
A|--3-3-3-3-3----3-3-3-3-3-----3-3-3-3-3--3----2-----------------------------|
E|--1-1-1-1-1----1-1-1-1-1---------------------------------------------------|

    F                          C
   (I) see you dancing for the young ones oh oh oh
e|---------------------------------------------------------------------------|
B|---------------------------------------------------------------------------|
G|---------------------------------------------------------------------------|
D|-----------------------------5-5-5-5-5--5----4-----------------------------|
A|--3-3-3-3-3----3-3-3-3-3-----3-3-3-3-3--3----2-----------------------------|
E|--1-1-1-1-1----1-1-1-1-1---------------------------------------------------|

    F                          C
    Maybellene      I          Hofteholder
e|---------------------------------------------------------------------------|
B|---------------------------------------------------------------------------|
G|---------------------------------------------------------------------------|
D|-----------------------------5-5-5-5-5--5----4-----------------------------|
A|--3-3-3-3-3----3-3-3-3-3-----3-3-3-3-3--3----2-----------------------------|
E|--1-1-1-1-1----1-1-1-1-1---------------------------------------------------|

    Am                              F
    Could   you   be   the   only   one
e|---------------------------------------------------------------------------|
B|---------------------------------------------------------------------------|
G|---------------------------------------------------------------------------|
D|---------------------------------------------------------------------------|
A|--7-7-7-7-7-7-7-7-7-7-7-7-7-7-7-7-3-3-3-3-3--------------------------------|
E|--5-5-5-5-5-5-5-5-5-5-5-5-5-5-5-5-1-1-1-1-1--------------------------------|

                           G
    Well I beg you to come home
e|---------------------------------------------------------------------------|
B|---------------------------------------------------------------------------|
G|---------------------------------------------------------------------------|
D|---------------------------------------------------------------------------|
A|--3-3-3-3-3-3-3-3-3-3-3-5-5-5-5-5-5-5-5-5-5-5-5-5-5-5-5--------------------|
E|--1-1-1-1-1-1-1-1-1-1-1-3-3-3-3-3-3-3-3-3-3-3-3-3-3-3-3--------------------|

                          C 
    Dance forever my only one
e|---------------------------------------------------------------------------|
B|---------------------------------------------------------------------------|
G|---------------------------------------------------------------------------|
D|---------------------------------------------------------------------------|
A|--5------------------------------------------------------------------------|
E|--3------------------------------------------------------------------------|




C     Am     Dm     G


C                       Am
I flicked the switch at Monday night
Dm                   G                 C
Oh Maybellene I'm so sorry that I didn't see it coming.
    Am                         Dm                
And now the sky, I filled with prayers.
   G                    C
Oh baby I'm sorry I was blind




| /  slide up
| \  slide down
| h  hammer-on
| p  pull-off
| ~  vibrato
| +  harmonic
| x  Mute note
            
Submit corrections

comments powered by Disqus
↑ Back to top | Volbeat Tabs for Maybellene I Hofteholder. Lyrics for acoustic guitar and electric guitar. Tablatures and chords are parodies/interpretations of the original songs. You may use it for private study, scholarship, research or language learning purposes only