» » »

Volbeat, Making Believe Bass tabs (ver.1)

Artists:  A B C D E F G H I J K L M N O P Q R S T U V W X Y Z # 

Making Believe Bass tabs (ver.1)

Volbeat Tabs
Rating:
0/5 (0 votes)
Making Believe lessons Tabs too difficult? Try these video lessons and learn fast
                Volbeat - “Making believe” Bass tab
I did this by ear, it sounded good to me so I uploaded it. By the way this is my very 
bass tab, so don't b**ch.

Making believe.. [Intro]
|------------------------------------------------------------------|
|--------1--------3--3-----------1--------3--3---------------------|
|--1--1-----1--1--------1--1--1-----1--1--------1------------------|
|------------------------------------------------------------------|

Making believe..
|------------------------------------------------------------------|
|------------------1--1-1-1-1-1-1----------------------------------|
|--1--1-1-1-1-1-1------------------1--1-1-1-1-1-1--1--1-1-1-1-1-1--|
|------------------------------------------------------------------|

It’s leaving me..
|------------------------------------------------------------------|
|--3--3-3-3-3-3-3--3--3-3-3-3-3-3----------------------------------|
|----------------------------------1--1-1-1-1-1-1--1--1-1-1-1-1-1--|
|------------------------------------------------------------------|

I always dream..
|------------------------------------------------------------------|
|------------------1--1-1-1-1-1-1----------------------------------|
|--1--1-1-1-1-1-1------------------1--1-1-1-1-1-1--1--1-1-1-1-1-1--|
|------------------------------------------------------------------|

Making believe..
|------------------------------------------------------------------|
|--3--3-3-3-3-3-3--3--3-3-3-3-3-3----------------------------------|
|----------------------------------1--1-1-1-1-1-1--1--1-1-1-1-1-1--|
|------------------------------------------------------------------|

I can’t hold you close..
|------------------------------------------------------------------|
|--3--3-3-3-3-3-3--3--3-3-3-3-3-3----------------------------------|
|----------------------------------1--1-1-1-1-1-1--1--1-1-1-1-1-1--|
|------------------------------------------------------------------|

You're somebody's love..
|------------------------------------------------------------------|
|--3--3-3-3-3-3-3--3--3-3-3-3-3-3----------------------------------|
|----------------------------------1--1-1-1-1-1-1--1--1-1-1-1-1-1--|
|------------------------------------------------------------------|

Making believe..
|------------------------------------------------------------------|
|------------------1--1-1-1-1-1-1----------------------------------|
|--1--1-1-1-1-1-1------------------1--1-1-1-1-1-1--1--1-1-1-1-1-1--|
|------------------------------------------------------------------|

Loving you..
|------------------------------------------------------------------|
|--3--3-3-3-3-3-3--3--3-3-3-3-3-3----------------------------------|
|----------------------------------1--1-1-1-1-1-1--1--1-1-1-1-1-1--|
|------------------------------------------------------------------|

First solo [x2]
|------------------------------------------------------------------|
|------------------1--1-1-1-1-1-1----------------------------------|
|--1--1-1-1-1-1-1------------------1--1-1-1-1-1-1--1--1-1-1-1-1-1--|
|------------------------------------------------------------------|

|------------------------------------------------------------------|
|--3--3-3-3-3-3-3--3--3-3-3-3-3-3----------------------------------|
|----------------------------------1--1-1-1-1-1-1--1--1-1-1-1-1-1--|
|------------------------------------------------------------------|

I can’t hold you close..
|------------------------------------------------------------------|
|--3--3-3-3-3-3-3--3--3-3-3-3-3-3----------------------------------|
|----------------------------------1--1-1-1-1-1-1--1--1-1-1-1-1-1--|
|------------------------------------------------------------------|

You're somebody's love..
|------------------------------------------------------------------|
|--3--3-3-3-3-3-3--3--3-3-3-3-3-3----------------------------------|
|----------------------------------1--1-1-1-1-1-1--1--1-1-1-1-1-1--|
|------------------------------------------------------------------|

Making believe..
|------------------------------------------------------------------|
|------------------1--1-1-1-1-1-1----------------------------------|
|--1--1-1-1-1-1-1------------------1--1-1-1-1-1-1--1--1-1-1-1-1-1--|
|------------------------------------------------------------------|

Loving you..
|------------------------------------------------------------------|
|--3--3-3-3-3-3-3--3--3-3-3-3-3-3----------------------------------|
|----------------------------------1--1-1-1-1-1-1--1--1-1-1-1-1-1--|
|------------------------------------------------------------------|

Second solo [Just once]
|------------------------------------------------------------------|
|------------------1--1-1-1-1-1-1----------------------------------|
|--1--1-1-1-1-1-1------------------1--1-1-1-1-1-1--1--1-1-1-1-1-1--|
|------------------------------------------------------------------|

|------------------------------------------------------------------|
|--3--3-3-3-3-3-3--3--3-3-3-3-3-3----------------------------------|
|----------------------------------1-1-1-1-1-1-1-1-1-1-1-1-1-1-----|
|------------------------------------------------------------------|

Making believe..
|------------------------------------------------------------------|
|----------------1-1-1--1-1-1--------------------------------------|
|--1-1-1--1-1-1----------------1-1-1--1-1-1--1-1-1--1-1-1----------|
|------------------------------------------------------------------|

It’s leaving me..
|------------------------------------------------------------------|
|--3-3-3--3-3-3--3-3-3---------------------------------------------|
|-----------------------1-1-1--1-1-1--1-1-1-1-1-1-1-1-1-1-1-1-1-1--|
|------------------------------------------------------------------|


I always dream..
|------------------------------------------------------------------|
|----------------1-1-1--1-1-1--------------------------------------|
|--1-1-1--1-1-1----------------1-1-1--1-1-1--1-1-1--1-1-1----------|
|------------------------------------------------------------------|

Making believe..
|------------------------------------------------------------------|
|--3-3-3--3-3-3--3-3-3---------------------------------------------|
|-----------------------1-1-1--1-1-1--1-1-1--1-1-1-----------------|
|------------------------------------------------------------------|

I can’t hold you close..
|------------------------------------------------------------------|
|--3--3-3-3-3-3-3--3--3-3-3-3-3-3----------------------------------|
|----------------------------------1--1-1-1-1-1-1--1--1-1-1-1-1-1--|
|------------------------------------------------------------------|

You're somebody's love..
|------------------------------------------------------------------|
|--3--3-3-3-3-3-3--3--3-3-3-3-3-3----------------------------------|
|----------------------------------1--1-1-1-1-1-1--1--1-1-1-1-1-1--|
|------------------------------------------------------------------|

Making believe..
|------------------------------------------------------------------|
|------------------1--1-1-1-1-1-1----------------------------------|
|--1--1-1-1-1-1-1------------------1--1-1-1-1-1-1--1--1-1-1-1-1-1--|
|------------------------------------------------------------------|

Loving you..
|------------------------------------------------------------------|
|--3--3-3-3-3-3-3--3--3-3-3-3-3-3----------------------------------|
|----------------------------------1--1-1-1-1-1-1--1--1-1-1-1-1-1--|
|------------------------------------------------------------------|

Just loving you..
|------------------------------------------------------------------|
|--3--3-3-3-3-3-3--3--3-3-3-3-3-3----------------------------------|
|----------------------------------1--1-1-1-1-1-1--1--1-1-1-1-1-1--|
|------------------------------------------------------------------|

Just loving you..
|------------------------------------------------------------------|
|--3--3-3-3-3-3-3--3--3-3-3-3-3-3--3-------------------------------|
|------------------------------------------------------------------|
|------------------------------------------------------------------|

And making believe..
|------------------------------------------------------------------|
|------------------1--1-1-1-1-1-1----------------------------------|
|--1--1-1-1-1-1-1------------------1--1-1-1-1-1-1--1---------------|
|------------------------------------------------------------------|
            

comments powered by Disqus
↑ Back to top | Volbeat Bass for Making Believe. Lyrics for acoustic guitar and electric guitar. Tablatures and chords are parodies/interpretations of the original songs. You may use it for private study, scholarship, research or language learning purposes only