» » »

I Only Wanna Be With You Tabs (ver.1)

Artists:  A B C D E F G H I J K L M N O P Q R S T U V W X Y Z # 

I Only Wanna Be With You Tabs (ver.1)

Volbeat
Rating:
0/5 (0 votes)

Hard to play? Try these video lessons and learn fast.
                
Tuning: Low to high - DGCFAd - and I know it's in D because i asked them!

This a good Dusty Springfield cover from the danish "Elvis-Metal" band Volbeat. And they 
live.
Two guitars are playing in this song

Riff 1: Continued many times by guitar 1.
d|---------------------------------------------------------------------------|
A|---------------------------------------------------------------------------|
F|---------------------------------------------------------------------------|
C|---------------------------------------------------------------------------|
G|---------------------------------------------------------------------------|
D|-0-0-0-0-0-2-3-4-0-0-0-0-0-2-3-4-------------------------------------------|
PM x x x x x x x x x x x x x x x x

Riff 1 (guitar 2): Starts about 7 seconds in the song
d|---------------------------------------------------------------------------|
A|---------------------------------------------------------------------------|
F|---------------------------------------------------------------------------|
C|---------------------------------------------------------------------------|
G|-2-2-2-2-2-------2-2-2-2-2-------------------------------------------------|
D|-0-0-0-0-0-2-3-4-0-0-0-0-0-2-3-4-------------------------------------------|
PM           x x x           x x x

Fill 1: Played when they finish riff 1
d|---------------------------------------------------------------------------|
A|---------------------------------------------------------------------------|
F|---------------------------------------------------------------------------|
C|---------------------------------------------------------------------------|
G|-2-2-x---------------------------------------------------------------------|
D|-0-0-x---------------------------------------------------------------------|

Riff 2: Both Guitars play this
d|---------------------------------------------------------------------------|
A|---------------------------------------------------------------------------|
F|---------------------------------------------------------------------------|
C|---------------------------------------------------------------------------|
G|-2-2-x-2-2-4-5-6--2-2-x-2-2-4-5-6------------------------------------------|
D|-0-0-x-0-0-2-3-4--0-0-x-0-0-2-3-4------------------------------------------|

And then guitar 2 starts playing this (and those are 10's, 11's, 12's and 13's if you 
figure that out)
d|---------------------------------------------------------------------------|
A|---------------------------------------------------------------------------|
F|-9-9-x-9-9-11-12-13--------------------------------------------------------|
C|-x-x-x-x-x-x--x--x---------------------------------------------------------|
G|-7-7-x-7-7-9--10-11--------------------------------------------------------|
D|---------------------------------------------------------------------------|

And then the verses: Both guitars play this
d|---------------------------------------------------------------------------|
A|---------------------------------------------------------------------------|
F|---------------------------------------------------------------------------|
C|---------------6-6-x-6-6-6-------------------------------------------------|
G|-2-2-x-2-2-2-x-4-4-x-4-4-4-------------------------------------------------|
D|-0-0-x-0-0-0-x-------------------------------------------------------------|

Then they move over to this:
d|---------------------------------------------------------------------------|
A|---------------------------------------------------------------------------|
F|---------------------------------------------------------------------------|
C|-2-22-4-44-22-2-4-444------------------------------------------------------|
G|-0-00-2-22-00-0-2-222------------------------------------------------------|
D|---------------------------------------------------------------------------|

And then:
d|---------------------------------------------------------------------------|
A|---------------------------------------------------------------------------|
F|----------------------------------------------4-4-4-4-4-4------------------|
C|-222222224444444-x-4-6-4-2-4-2222222244444444-2-2-2-2-2-2------------------|
G|-000000002222222-x-----------0000000022222222------------------------------|
D|---------------------------------------------------------------------------|

Then:
Verse 1x
Riff 2 1x
Verse 1x

Then comes the bridge-thingy:
d|---------------------------------------------------------------------------|
A|---------------------------------------------------------------------------|
F|---------------------------------------------------------------------------|
C|-55555555555555555-4444444444444444-------------22222222-4444444-----------|
G|-33333333333333333-2222222222222222-55555555555-00000000-2222222-----------|
D|------------------------------------33333333333----------------------------|
PM xxxxxxxxxxxxxxxxx xxxxxxxxxxxxxxxx xxxxxxxxxxx xxxxxxxx xxxxxxx

Then:
Verse 1x
And play the last part of the verse twice.

And then finally: Riff 2
The End.


| /  slide up
| \  slide down
| h  hammer-on
| p  pull-off
| ~  vibrato
| +  harmonic
| x  Mute note
            
Hard to play? Try these video lessons and learn fast. | Correct




comments powered by Disqus
↑ Back to top | Tablatures and chords are parodies/interpretations of the original songs. You may use it for private study, scholarship, research or language learning purposes only