>
 >
I Only Wanna Be With You

I Only Wanna Be With You Bass Tabs

Volbeat - I Only Wanna Be With You chords, tabs, tablatures, lyrics

Guitar lessons | Add/correct | Request | Top 50 tabs Artists:  A B C D E F G H I J K L M N O P Q R S T U V W X Y Z 0-9

I Only Wanna Be With You Bass Tabs – Volbeat

CD, Sheet music, Poster

Do you like I Only Wanna Be With You? Share with your friends now
Bass TabsBass Tabs v2ChordsTabsTabs v2Ukulele
Other Comments: Volbeat Styre.!!! Fadbamser..!!
Tuning: DGCF

Hi.. Here Are The Tabs To The Kick-Ass Song "I Only Wanna Be With You".
Normally I Play The Guitar, But Well This Time I Tryed To Tab The Bass First.
I'll Submit The Guitar Tabs Soon.. =) Well The Song Is Not That Difficult, The Only
You Should Notice Is That The Rythm Is A Little Strange, But Not That Hard When You've
It For A Little While..
Enjoy.. =)


Bass starts here (Follow the Drums) : 0.07 min.
|----------------------------------------------------------------------|
|----------------------------------------------------------------------|
|----------------------------------------------------------------------|
|--------------0--0---------0--0---------0--0---------0--0-------------|

0.14 min. (Main-Riff)
|----------------------------------------------------------------------|
|----------------------------------------------------------------------|
|----------------------------------------------------------------------|
|----------------------0-0--0-0--2--3--4-------------------------------|

1. Verse: 0.28 min.
|----------------------------------------------------------------------|
|----------------------------------------------------------------------|
|---------------------4--4--4--4--4------------------------------------|
|--0--0--0--0--0-------------------------------------------------------|

0.34 min.
|----------------------------------------------------------------------|
|----------------------------------------------------------------------|
|-------0--0--0--2--2--2--0--0--0--2--2--2-----------------------------|
|----------------------------------------------------------------------|

0.38 min.
|----------------------------------------------------------------------|
|----------------------------------------------------------------------|
|---------------------4--4--4--4--4------------------------------------|
|--0--0--0--0--0-------------------------------------------------------|

1. Chorus: 0.42 min.
|----------------------------------------------------------------------------------------|
|---------------------------------------------------------------2-2-2-2-2-2-2-2----------|
|---0-0-0-0-0-0-0-0----2-2-2-2-2-2-2-2----0-0-0-0----2-2-2-2-----------------------------|
|----------------------------------------------------------------------------------------|

2. Verse: 0.49 min.
|----------------------------------------------------------------------|
|----------------------------------------------------------------------|
|---------------------4--4--4--4--4------------------------------------|
|--0--0--0--0--0-------------------------------------------------------|

0.56 min.
|----------------------------------------------------------------------|
|----------------------------------------------------------------------|
|-------0--0--0--2--2--2--0--0--0--2--2--2-----------------------------|
|----------------------------------------------------------------------|

0.59 min.
|----------------------------------------------------------------------|
|----------------------------------------------------------------------|
|---------------------4--4--4--4--4------------------------------------|
|--0--0--0--0--0-------------------------------------------------------|

2. Chorus: 1.03 min.
|----------------------------------------------------------------------------------------|
|---------------------------------------------------------------2-2-2-2-2-2-2-2----------|
|---0-0-0-0-0-0-0-0----2-2-2-2-2-2-2-2----0-0-0-0----2-2-2-2-----------------------------|
|----------------------------------------------------------------------------------------|

1.10 min. (Main-Riff)
|----------------------------------------------------------------------|
|----------------------------------------------------------------------|
|----------------------------------------------------------------------|
|-----------------0-0--0-0--2--3--4------------------------------------|

3. Verse: 1.24 min.
|----------------------------------------------------------------------|
|----------------------------------------------------------------------|
|---------------------4--4--4--4--4------------------------------------|
|--0--0--0--0--0-------------------------------------------------------|

1.30 min.
|----------------------------------------------------------------------|
|----------------------------------------------------------------------|
|-------0--0--0--2--2--2--0--0--0--2--2--2-----------------------------|
|----------------------------------------------------------------------|

1.33 min.
|----------------------------------------------------------------------|
|----------------------------------------------------------------------|
|---------------------4--4--4--4--4------------------------------------|
|--0--0--0--0--0-------------------------------------------------------|

3. Chorus: 1.37 min.
|----------------------------------------------------------------------------------------|
|---------------------------------------------------------------2-2-2-2-2-2-2-2----------|
|---0-0-0-0-0-0-0-0----2-2-2-2-2-2-2-2----0-0-0-0----2-2-2-2-----------------------------|
|----------------------------------------------------------------------------------------|

Bridge: 1.44 min.
|-----------------------------------------------------------------------------------------------------------------------------------------------|
|-----------------------------------------------------------------------------------------------------------------------------------------------|
|---3-3-3-3-3-3-3-3-3-3-3-3-3-3-3-3---2-2-2-2-2-2-2-2-2-2-2-2-2-2-2-2-------------------------------0-0-0-0-0-0-0-0---2-2-2-2-2-2-2-2-----------|
|----------------------------------------------------------------------3-3-3-3-3-3-3-3-3-3-3-3-3-3----------------------------------------------|

4. Verse: 1.58 min.
|----------------------------------------------------------------------|
|----------------------------------------------------------------------|
|---------------------4--4--4--4--4------------------------------------|
|--0--0--0--0--0-------------------------------------------------------|

2.05 min.
|----------------------------------------------------------------------|
|----------------------------------------------------------------------|
|-------0--0--0--2--2--2--0--0--0--2--2--2-----------------------------|
|----------------------------------------------------------------------|

2.08 min.
|----------------------------------------------------------------------|
|----------------------------------------------------------------------|
|---------------------4--4--4--4--4------------------------------------|
|--0--0--0--0--0-------------------------------------------------------|

4. Chorus: 2.12 min.
|----------------------------------------------------------------------------------------|
|---------------------------------------------------------------2-2-2-2-2-2-2-2----------|
|---0-0-0-0-0-0-0-0----2-2-2-2-2-2-2-2----0-0-0-0----2-2-2-2-----------------------------|
|----------------------------------------------------------------------------------------|

2.25 min. (Main-Riff)
|----------------------------------------------------------------------|
|----------------------------------------------------------------------|
|----------------------------------------------------------------------|
|-----------------0-0--0-0--2--3--4------------------------------------|

End With:
|----------------------------------------------------------------------|
|----------------------------------------------------------------------|
|----------------------------------------------------------------------|
|-----------------0-0--0-0---4---0-------------------------------------|


THE END.. =D





Comments


Popular Volbeat tabs & chords
I Only Wanna Be With You 2 Bass Tabs
Still Counting Bass Tabs
Heaven Nor Hell 1 Chords
Radio Girl Chords
A Moment Forever Tabs
A Warrior's Call Tabs
Caraline Leaving Tabs
Heaven Nor Hell 1 Tabs
A Broken Man And The Dawn Ukulele
Lonesome Rider Ukulele


Song lyrics



↑ Back to top | Tablatures and chords are parodies/interpretations of the original songs. You may use it for private study, scholarship, research or language learning purposes only
© 2014 AZChords.com Contact us | Privacy policy | DMCA | Add/correct tabs | Request tabs | Top 50 tabs