» » »

Volbeat, Heaven Nor Hell Tabs (ver.3)

Artists:  A B C D E F G H I J K L M N O P Q R S T U V W X Y Z # 

Heaven Nor Hell Tabs (ver.3)

Volbeat Tabs
 Rating:
3.7/5 (6 votes)
Heaven Nor Hell lessons Tabs too difficult? Try these video lessons and learn fast
1
                
Tuning: Standart E


Sorry guys, couldnt figure out the bridge but I hope you gonna have fun with the rest...



INTRO/STROPHE-PART 1
e|---------------------------------------------------------------------------|
B|---------------------------------------------------------------------------|
G|-------8-8---8-8---8-8-----8-13-13---8-8-----------------------------------|
D|-------8-8---8-8---8-8-----8-13-13---8-8---8-8-----------------------------|
A|-------6-6---6-6---6-6-----6/11-11---6-6---8-8-----------------------------|
E|-------------------------------------------6-6-----------------------------|

STROPHE PART 2
e|---------------------------------------------------------------------------|
B|---------------------------------------------------------------------------|
G|-------8888888888888888-13131313-8888--------------------------------------|
D|-------8888888888888888-13131313-8888-8888888888---------------------------|
A|-------6666666666666666-11111111-6666-8888888888---------------------------|
E|--------------------------------------6666666666---------------------------|
         .........................................

CHORUS
e|---------------------------------------------------------------------------|
B|---------------------------------------------------------------------------|
G|-----------------------------88888888--------------------------------------|
D|-------66666666---88888888---88888888---66666666---------------------------|
A|-------66666666---88888888---66666666---66666666---------------------------|
E|-------44444444---66666666--------------44444444---------------------------|
            
Submit corrections

comments powered by Disqus
↑ Back to top | Volbeat Tabs for Heaven Nor Hell. Lyrics for acoustic guitar and electric guitar. 1 Tablatures and chords are parodies/interpretations of the original songs. You may use it for private study, scholarship, research or language learning purposes only