» » »

Heaven Nor Hell Tabs (ver.2)

Artists:  A B C D E F G H I J K L M N O P Q R S T U V W X Y Z # 

Heaven Nor Hell Tabs (ver.2)

Volbeat
Rating:
5/5 (3 votes)

Hard to play? Try these video lessons and learn fast.
                My first tab. I saw nobody did the bridge so i figured out the kind of solo part that 
they do. Here it is
Tuning: Standard E

INTRO/VERSE
e|---------------------------------------------------------------------------|
B|---------------------------------------------------------------------------|
G|-------8-8---8-8---8-8-----8-13-13---8-8-----------------------------------|
D|-------8-8---8-8---8-8-----8-13-13---8-8---8-8-----------------------------|
A|-------6-6---6-6---6-6-----6/11-11---6-6---8-8-----------------------------|
E|-------------------------------------------6-6-----------------------------|

VERSE (PM)
e|---------------------------------------------------------------------------|
B|---------------------------------------------------------------------------|
G|-------8888888888888888-13131313-8888--------------------------------------|
D|-------8888888888888888-13131313-8888-8888888888---------------------------|
A|-------6666666666666666-11111111-6666-8888888888---------------------------|
E|--------------------------------------6666666666---------------------------|
         .........................................

CHORUS
e|---------------------------------------------------------------------------|
B|---------------------------------------------------------------------------|
G|-----------------------------88888888--------------------------------------|
D|-------66666666---88888888---88888888---66666666---------------------------|
A|-------66666666---88888888---66666666---66666666---------------------------|
E|-------44444444---66666666--------------44444444---------------------------|

BRIDGE
e|---------------------------------------------------------------------------|
B|---------------------------------------------------------------------------|
G|------12b-12b--------------------------------------------------------------|
D|--------------12--10~---12-12-12-12-12-12-13-13-13-13-13-13----------------|
A|---------------------------------------------------------------------------|
E|---------------------------------------------------------------------------|

BRIDGE pt2
e|---------------------------------------------------------------------------|
B|---------------------------------------------------------------------------|
G|---------------------------------------------------------------------------|
D|-----5b-5b-----------------------------------------------------------------|
A|-----------5-3~---5-5-5-5-5-5-6-6-6-6-6-6----------------------------------|
E|---------------------------------------------------------------------------|


Just add the effects at the end when needed. And thats basically it. for more info you 
            
Hard to play? Try these video lessons and learn fast. | Correct




comments powered by Disqus
↑ Back to top | Tablatures and chords are parodies/interpretations of the original songs. You may use it for private study, scholarship, research or language learning purposes only