» » »

Volbeat, Hallelujah Goat Tabs (ver.1)

Artists:  A B C D E F G H I J K L M N O P Q R S T U V W X Y Z # 

Hallelujah Goat Tabs (ver.1)

Volbeat Tabs
 Rating:
4.4/5 (7 votes)
Hallelujah Goat lessons Tabs too difficult? Try these video lessons and learn fast
1
                Here's my tab for the song Hallelujah Goat by Volbeat

I'm not sure if it's 100% correct but it should be pretty close or 
more than enough to get you started 

Tuning: Drop D

Guitar 1: Lead
Guitar 2: Rhythm

Intro: Guitars 1, 2

e--------------------pm---------------------------pm-----------|
B--------------------------------------------------------------|
G----7--5--7--/10-7---------------7--5--7--/10-7---------------|
D----x--x--x--/x--x--0-0-0-0-0-0--x--x--x--/x--x--0-0-0-0-0-0--|
A----5--3--5--/8--5--0-0-0-0-0-0--5--3--5--/8--5--0-0-0-0-0-0--]
D--------------------0-0-0-0-0-0------------------0-0-0-0-0-0--]

e--------------------pm------------------------------------|
B----------------------------------------------------------|
G----7--5--7--/10-7---------------7--5--7--/10101010101010-|
D----x--x--x--/x--x--0-0-0-0-0-0--x--x--x--/x-x-x-x-x-x-x--|
A----5--3--5--/8--5--0-0-0-0-0-0--5--3--5--/8-8-8-8-8-8-8--|
D--------------------0-0-0-0-0-0---------------------------|

Verse Part 1: Guitars 1, 2 (main riff thingy)

e------------------------------------------------------------------------|
B------------------------------------------------------------------------|
G-------------------------------------------------------p-m--------------|
D-------p-m---------------------p-m--------------------------------------|
A------------------------------------------------------------------------|
D--0--3-0-0--8-0-5b7r5-----0--3-0-0--8-0--5b7r5----0--3-0-0--8-0--5b7r5--|

e-------------------------|
B-------------------------|
G-------------------------|
D------p-m----------------| Repeat Three Times
A----8------8-8--10h12-10-|
D--0---0-0----------------|  

Verse Part 2: Guitar 1 (Only used once)

e--------------------------------------------------------------------------|
B--------------------------------------------------------------------------|
G--------------------------------------------------------------------------|
D--------------------------------------------------------------------------|
A--------------------------------------------------------------------------|
D-0-0-0-0-0-0-3p0-0--0-0-0-0-0-0-3p0--0-0-0-0-0-0-3p0---0-0-8p00-7p00-5p00-|

Now Guitar 2 jumps in (slight shift) THIS RIFF IS USED FOR THE BULK OF THE VERSES

e--------------------------------------------------------------------------|
B--------------------------------------------------------------------------|
G--------------------------------------------------------------------------|
D--------------------------------------------------------------------------|
A--------------------------------------------------------------------------|
D-0-0-3p0--0-0-3p0--0-0-3p0--0-0-3p0--0-0-3p0--0-0-3p0--0-0-8p00-7p00-5p00-|


Pre-chorus (muted) 


I think it sounds best to mute the whole chords, but if you'd
prefer to just play the root notes it still sounds fine

Guitar 1 (lead fill)

e--------------------------------------------------------------------------|
B--------------------------------------------------------------------------|
G-------------------------------------------------5/7-7-7/9-9-9/10-10/12-12|
D-888888888888777777777777-0--0-0-0-0--0--0-0-0-0-x-x-x-x-x-x-x-x-x-x--x-x-|
A-888888888888777777777777-0--0-0-0-0--0--0-0-0-0-3/5-5-5/7-7-7/8-8-8/10-10|
D-888888888888777777777777-0--0-0-0-0--0--0-0-0-0--------------------------|
 

Guitar 2

e--------------------------------------------------------------------------|
B--------------------------------------------------------------------------|
G--------------------------------------------------------------------------|
D-888888888888777777777777-0--0-0-0-0--0--0-0-0-0--0--0-0-0-0--0--0-0-0-0--|
A-888888888888777777777777-0--0-0-0-0--0--0-0-0-0--0--0-0-0-0--0--0-0-0-0--|
D-888888888888777777777777-0--0-0-0-0--0--0-0-0-0--0--0-0-0-0--0--0-0-0-0--|

Guitar 1 fill 2 (for second time)

e-----------------------------|
B-----------------------------|
G--5/7-7-7/9-9-9--10-9--------|
D--x-x-x-x-x-x-x--x--x--------|
A--3/5-5-5/7-7-7--8--7--------|
D-----------------------------|

Repeat Prechorus three times total

NOW....repeat the verse riffs. There's one small fill after the verse part 1

D-------------|
A-------------|
D--888888-7-5-|

Chorus (Can be combined into one guitar, but I'm fairly certain the recording uses two)

Guitar 1

e--------------------------------------------------------------------|
B----------------------------------------------------------------1-3-|
G---------2^------2-0-2------3^-------3-2-0------------------2-3-----|
D---------------------------------------------------2----------------|
A--------------------------------------------------------------------|
D--------------------------------------------------------------------|

e--------------------------------------------------------------------|
B--------------------------------------------------------------------|
G--------------------------------------------------------------------|
D-0000000---0000000---8888888---8888888---5555555---5555555---3------|
A-0000000---0000000---8888888---8888888---5555555---5555555---3------|
D-0000000---0000000---8888888---8888888---5555555---5555555---3------|

Repeat

Solo:


e-----------------------------------------------|
B-----------------------------------------------|
G-----10-9-7-----10-9-7-------------------------|
D---8---------8---------7--7-10---8h10p8--------|
A-----------------------------------------------|
D-----------------------------------------------|

e---------------------------------------------------------|
B---------------------------------------------------------|
G-----10-9-7-----10-9-7----------------------------------2|
D---8---------8---------7--7-8-7--5-7-5---3-5-3--2-3-2---0|
A---------------------------------------------------------|
D---------------------------------------------------------|


After the solo repeat verse part 2, the prechorus and
the chorus. Then end with the verse part 1 riff. Hope
I've been of some help




                                               
            
Submit corrections

comments powered by Disqus
↑ Back to top | Volbeat Tabs for Hallelujah Goat. Lyrics for acoustic guitar and electric guitar. 1 Tablatures and chords are parodies/interpretations of the original songs. You may use it for private study, scholarship, research or language learning purposes only