>
 >
Find That Soul

Find That Soul Guitar Tabs

Volbeat - Find That Soul chords, tabs, tablatures, lyrics

Guitar lessons | Add/correct | Request | Top 50 tabs Artists:  A B C D E F G H I J K L M N O P Q R S T U V W X Y Z 0-9

Find That Soul Guitar Tabs – Volbeat

CD, Sheet music, Poster

Do you like Find That Soul? Share with your friends now
Tabs
---------------------------------------------------------------------------
---------------------------------------------------------------------------
Tuning: D-Tuning

Guitar 1
       | Part 1
d|-----|------------------------------------------------------------------|
A|-----|------------------------------------------------------------------|
F|-----|------------------------------------------------------------------|
C|-----|------------------------------------------------------------------|
G|--2--|--2------------------------------3-------------------2------------|
D|--0--|--0------------------------------1-------------------0------------|

strum chords (listen to the song for rhythm, not difficult)

Guitar 2

d|-----|------------------------------------------------------------------|
A|-----|---------------------------------1~--/3---3---3p1p0---------------|
F|-----|--------/4---4\2---1~--------1-2-------------------1---4--4-4--4--|
C|-----|-2~--2-----------------2~--2-------------------------2~-----------|
G|-----|------------------------------------------------------------------|
D|-----|------------------------------------------------------------------|
                                                                 End Part 1


 - Repeat Part 1 -  without the 4s at the End of Guitar 2

0:27
d|-------------------|
A|-------------------|
F|-------------------|
C|-------------------|
G|-2-----------------|
D|-0---0h1p0-0h1p0---|


Part 2

0:30
d|------------------------------------------------|
A|------------------------------------------------|
F|------------------------------------------------|
C|------------------------------------------------| 3x
G|-2--2-2-2-2--2--2-2-2-2--2--2-2-2-2---3---------|
D|-0--0-0-0-0--0--0-0-0-0--0--0-0-0-0---1---------|
PM   |-------------------------------| End Part 2-|


d|-----------------------------------------------------|
A|-----------------------------------------------------|
F|-----------------------------------------------------|
C|-----------------------------------------------------|
G|-2--2-2-2-2--2--2-2-2-2------------------------------|
D|-0--0-0-0-0--0--0-0-0-0---0h1p0-0h1p0-0h1p0-0h1p0----|
PM|----------------------|

- Repeat Part 2 3x -



End 1

0:54
d|---------------------------------------------------|
A|---------------------------------------------------|
F|---------------------------------------------------|
C|---------------------------------------------------|
G|-2--2-2-2-2--2--2-2-2-2--2--2-2-2-2---2--2-2-2-2---|
D|-0--0-0-0-0--0--0-0-0-0--0--0-0-0-0---0--0-0-0-0---|
PM   |-----------------------------------------------|
                                       End of End 1

Part 3

0:57
d|------------------------------------------------------------------------|
A|------------------------------------------------------------------------|
F|------------------------------------------------------------------------|
C|------------------------------------------------------------------------|
G|------------------------------------------------------------------------|
D|-5--5-5--5-5--5-5--5-5--5-5--5-5--5-5--5-1--1-1--1-1--1-1--1-1--1-1--1--|

d|---------------|
A|---------------|
F|---------------|
C|---------------|
G|---------------|
D|--0h1p0-0h1p0--|

d|------------------------------------------------------------------------|
A|------------------------------------------------------------------------|
F|------------------------------------------------------------------------|
C|------------------------------------------------------------------------|
G|------------------------------------------------------------------------|
D|-5--5-5--5-5--5-5--5-5--5-5--5-5--5-5--5-1--1-1--1-1--1-1--1------------|

d|-----------------------|
A|-----------------------|
F|-----------------------|
C|-----------------------|
G|-----------------------|
D|-3--3-3--3-3--3-3--3---|
             End Part 3


- Repeat Part 3 -


Part 4

1:24
d|--------------|----------|
A|--------------|----------|
F|------------2x|----------|
C|--------------|----------|
G|--8----3--7---|-5-----5--|
D|--6----1--5---|-3-----3--|
       End Part 4
Strum Chords


 - Repeat Part 2 -
 - Repeat End 1 -
 - Repeat Part 3 2x -
 - Repeat Part 4 4x -




2:39

Guitar 1
d|-------------------------------------------|
A|-------------------------------------------|
F|-------------------------------------------|
C|----------------------------------5--------|
G|-5--------------------3-----------3--------|
D|-3--------------------1--------------------|

Guitar 2
d|-------------------------------------------------|
A|-------------------------------------------------|
F|-------------------------------------------------|
C|--------/17-15-14-15--10~--10--10/12---10-10h12--|
G|/10~--10-----------------------------------------|
D|-------------------------------------------------|


Guitar 1
d|--------------------------------------------|
A|--------------------------------------------|
F|--------------------------------------------|
C|--------------------------------5-----------|
G|-5------------------3-----------3-----------|
D|-3------------------1-----------------------|


Guitar 2
d|--------------------------------------------|
A|--------------------------------------------|
F|--------------------------------------------|
C|-5~-5-/17-15-14-15--10~--10--10/12---10-12--|
G|--------------------------------------------|
D|--------------------------------------------|


Guitar 1
d|--------------------------------------------|
A|--------------------------------------------|
F|--------------------------------------------|
C|--------------------------------------------|
G|--5---------------------------10------------|
D|--3---------------------------8-------------|


Guitar 2
d|--------------------------------------------|
A|--------------------------------------------|
F|-/15~----15-15---14-------14----------------|
C|------------------------------10~--12-/14~--|
G|--------------------------------------------|
D|--------------------------------------------|



2:59

Guitar 1
d|-----------------------------------------------------------------------|
A|-----------------------------------------------------------------------|
F|-----------------------------------------------------------------------|
C|-----------------------------------------------------------------------|
G|--2--------------------------------3-------------------2---------------|
D|--0--------------------------------1-------------------0---------------|
       Strum Chords (rhythm like in End 1, PM throughout)


Guitar 2
d|-----------------------------------------------------------------------|
A|-----------------------------------1~--/3---3---3p1p0------------------|
F|----------/4---4-2---1~--------1-2-------------------1------4--4-4--4--|
C|---2~--2-----------------2~--2-------------------------2~--------------|
G|-----------------------------------------------------------------------|
D|----------------------------------------------------------0------------|


Guitar 1
d|-----------------------------------------------------------------------|
A|-----------------------------------------------------------------------|
F|-----------------------------------------------------------------------|
C|-----------------------------------------------------------------------|
G|--2--------------------------------3~----------------3-2---------------|
D|--0--------------------------------1~----------------1-0---------------|
   | Strum Chords (rhythm like above) |



Guitar 2
d|-----------------------------------------------------------------------|
A|-----------------------------------1~--/3---3---3p1p0------------------|
F|----------/4---4\2---1~--------1-2-------------------1-----------------|
C|---2~--2-----------------2~--2-------------------------2~--------------|
G|-----------------------------------------------------------------------|
D|-----------------------------------------------------------------------|


d|----------------------------|
A|----------------------------|
F|----------------------------|
C|----------------------------|
G|----------------------------|
D|---0h1p0-0h1p0-0h1p0-0h1p0--|

- Repeat Part 2 3x -

d|---------------------------------------------------|---|
A|---------------------------------------------------|---|
F|---------------------------------------------------|---|
C|---------------------------------------------------|---|
G|-2--2-2-2-2--2--2-2-2-2----------------------------|2--|
D|-0--0-0-0-0--0--0-0-0-0---0h1p0-0h1p0-0h1p0-0h1p0--|0--|
PM|------------------------------------------------------|


| \   slide down
| /   slide up
| h   hammer-on
| p   pull-off
| ~   vibrato





Comments


Popular Volbeat tabs & chords
Back To Prom Chords
Making Believe 1 Chords
We Chords
Caroline Leaving Intro Tabs
I'm So Lonesome I Could Cry Tabs
Mr And Mrs Ness Tabs
The Human Instrument 1 Tabs
Im So Lonesome I Could Cry 2 Ukulele
Lonesome Rider Ukulele
Soulweeper Ukulele


Song lyrics



↑ Back to top | Tablatures and chords are parodies/interpretations of the original songs. You may use it for private study, scholarship, research or language learning purposes only
© 2014 AZChords.com Contact us | Privacy policy | DMCA | Add/correct tabs | Request tabs | Top 50 tabs