» » »

Volbeat, Fallen Chords (ver.2)

Artists:  A B C D E F G H I J K L M N O P Q R S T U V W X Y Z # 

Fallen Chords (ver.2)

Volbeat Tabs
 Rating:
4/5 (4 votes)
Fallen lessons Tabs too difficult? Try these video lessons and learn fast
1
                i took one of the chords i found here and builded it in a better way, tho the
first chords was kinda bad.... Tunning standard *EBGDAE*

On the part *But I will rise* i play it like this

e|--------------------------------------------------------------------------|
B|--------------------------------------------------------------------------|
G|--------------------------------------------------------------------------|
D|---------5-5-5-5-5-5-5-5-4-4-4-4-2-2-2-2----------------------------------|
A|---------5-5-5-5-5-5-5-5-4-4-4-4-2-2-2-2----------------------------------|
E|---------3-3-3-3-3-3-3-3-2-2-2-2-0-0-0-0----------------------------------|
But i will rise

so start the strumming at *Rise*

That part you can also play in the ends on the vers and also in the end off the
song before going on the last D.
Chords
           G      D      A      Bb
e|---------------------------------------------------------------------------|
B|------------------------------2--------------------------------------------|
G|----------------7-------------2--------------------------------------------|
D|---------5------7------7------2--------------------------------------------|
A|---------5------5------7------4--------------------------------------------|
E|---------3-------------5---------------------------------------------------|


Volbeat - Fallen

Intro:
D   G  x2

Verse
D
Feel the sadness burning in my heart
G
You left to early father love
D
So many things I should have said
G
But in your mind you knew it well
D
Holding on to what I got and love
G
But things still seems so dark and cold
D                           G
The fire is burning down my happiness
           G
But I will rise

D   G   x4
(Then continue during verse)

Verse

D
So proud and strong you truly were
G
I took it with me as a tool
D
A gift from father to his only son
G
Watching over me with eagle eyes
D
You gave me freedom to a life
G
where dreams are born and truly became real

Chorus
D                        A
See me falling, down and lonely
        Bb              A               G
Are the angles on their way, I'm in the dirt
        D                 A
Hear me screaming, see me bleeding
          Bb               A            G
Cause the days no more the same without you

D   G   x2

Verse

D
Promise me my son you always will
G
Cherish what you love believing in
D
Never loose your values, stand up for the day
G
Oh dear father I thank you for the years
D
I'm writting this song on your desk
G
Together we can make it through the day

Chorus
D                        A
See me falling, down and lonely
        Bb              A               G
Are the angles on their way, I'm in the dirt
        D                 A
Hear me screaming, see me bleeding
          B                A            G
Cause the days no more the same without you

Solo:

D    A       \
Bb   A   G   / x2
D

Chorus x2

(D)                      A
See me falling, down and lonely
        Bb              A               G
Are the angles on their way, I'm in the dirt
        D                 A
Hear me screaming, see me bleeding
          B                A            G
Cause the days no more the same without you


D   G   x4

End on D
            
Submit corrections

comments powered by Disqus
↑ Back to top | Volbeat Chords for Fallen. Lyrics for acoustic guitar and electric guitar. 1 Tablatures and chords are parodies/interpretations of the original songs. You may use it for private study, scholarship, research or language learning purposes only