» » »

Volbeat, Danny And Lucy 11 Pm Tabs (ver.1)

Artists:  A B C D E F G H I J K L M N O P Q R S T U V W X Y Z # 

Danny And Lucy 11 Pm Tabs (ver.1)

Volbeat Tabs
 Rating:
4/5 (4 votes)
Danny And Lucy 11 Pm lessons Tabs too difficult? Try these video lessons and learn fast
                Hey there, this is my first tab so I'm not 100 % sure about it.

Tuning: Drop D (DADGBe)

Intro:
e ----------|
B ----------|
G ----------|
D ---533----|
A ---533----| x4
D ---533----|

Before Vers:
e -----------------|
B -----------------|
D -------------533-|
A -------------533-|
D 0000000000000533 x4

Vers:

e ----------|
B ----------|
G ----------|
D ---533----|
A ---533----| x4
D ---533----|

e ----------------|
B ----------------|
G ----------------|
D 0000000000000533|
A 0000000000000533|
D 0000000000000533| x4

e ----------|
B ----------|
G ----------|
D ---533----|
A ---533----| x2
D ---533----|

e ----------------|
B ----------------|
G ----------------|
D 0000000000000533|
A 0000000000000533|
D 0000000000000533| x3

e ----------------|
B ----------------|
G ----------------|
D 0000000000000000|
A 0000000000000000|
D 0000000000000000|

Chorus:
e --------------------------------|
B --------------------------------|
G --------------------------------|
D 3-3-3-3-0-0-0-0-5-5-5-5-7-7-7-7-|
A 3-3-3-3-0-0-0-0-5-5-5-5-7-7-7-7-|
D 3-3-3-3-0-0-0-0-5-5-5-5-7-7-7-7-|

e ------------------------------|
B ------------------------------|
G ------------------------------|
D 3----3-0-------5-----5-7------|
A 3----3-0-------5-----5-7------|
D 3----3-0-------5-----5-7------|

(Not so sure about this...)

e ---------------------------------------|
B ---------------------------------------|
G ---------------------------------------|
D --5-7-9-10------1010-9-7-5------5-7-9--|
A 5--------------------------------------|
D ---------------------------------------| x2

Before vers 2

e ----------------|
B ----------------|
G ----------------|
D 0000000000000533|
A 0000000000000533|
D 0000000000000533| x4

Vers:

e ----------|
B ----------|
G ----------|
D ---533----|
A ---533----| x4
D ---533----|

e ----------------|
B ----------------|
G ----------------|
D 0000000000000533|
A 0000000000000533|
D 0000000000000533| x4

Chorus:

Chorus:
e --------------------------------|
B --------------------------------|
G --------------------------------|
D 3-3-3-3-0-0-0-0-5-5-5-5-7-7-7-7-|
A 3-3-3-3-0-0-0-0-5-5-5-5-7-7-7-7-|
D 3-3-3-3-0-0-0-0-5-5-5-5-7-7-7-7-|

e ------------------------------|
B ------------------------------|
G ------------------------------|
D 3----3-0-------5-----5-7------|
A 3----3-0-------5-----5-7------|
D 3----3-0-------5-----5-7------|

e -----------|
B -----------|
G -----------|
D --5-7-9-10-|
A -----------|
D -----------|

e --------------------------------|
B --------------------------------|
G --------------------------------|
D 3-3-3-3-0-0-0-0-5-5-5-5-7-7-7-7-|
A 3-3-3-3-0-0-0-0-5-5-5-5-7-7-7-7-|
D 3-3-3-3-0-0-0-0-5-5-5-5-7-7-7-7-|

e ------------------------------|
B ------------------------------|
G ------------------------------|
D 3----3-0-------5-----5-7------|
A 3----3-0-------5-----5-7------|
D 3----3-0-------5-----5-7------|

e ---------------------------------------|
B ---------------------------------------|
G ---------------------------------------|
D --5-7-9-10------1010-9-7-5------5-7-9--|
A 5--------------------------------------|
D ---------------------------------------| x2

Ending:
e ----------------|
B ----------------|
G ----------------|
D 0000000000000533|
A 0000000000000533|
D 0000000000000533| x4

Hope it's okay. (:

MP
            
Submit corrections

comments powered by Disqus
↑ Back to top | Volbeat Tabs for Danny And Lucy 11 Pm. Lyrics for acoustic guitar and electric guitar. Tablatures and chords are parodies/interpretations of the original songs. You may use it for private study, scholarship, research or language learning purposes only