» » »

Volbeat, Caroline Leaving Tabs (ver.2)

Artists:  A B C D E F G H I J K L M N O P Q R S T U V W X Y Z # 

Caroline Leaving Tabs (ver.2)

Volbeat Tabs
 Rating:
4/5 (4 votes)
Caroline Leaving lessons Tabs too difficult? Try these video lessons and learn fast
                (Intro)
Hey!
This is my first tab, but i hope you'll enjoy it..

Intro
e|-------------------------------------|
B|-------------------------------------|
G|-------------------------------------|
D|-------------------------------3---5-| 3x
A|-------------------------------3---5-|
D|-0--0-0--0-0--0-0--0-0--0-0--0-3-0-5-|
   .  . .  . .  . .  . .  . .  .   .

e|-------------------------------------|
B|-------------------------------------|
G|-------------------------------------|
D|---------------------8-8-8-8-8-8-8---|
A|---------------------8-8-8-8-8-8-8---|
D|-0--0-0--0-0--0-0--0-8-8-8-8-8-8-8---|
   .  . .  . .  . .  .

Vers
e|------------------------------------------------|
B|------------------------------------------------|
G|------------------------------------------------|
D|------------------------------------------------|
A|-------------------------------------5--5-------|
D|-3p0-0-5p0-0-6p0-0-7p0-0-3p0-0-5p0-0-------6--5-|


e|------------------------------------------------|
B|------------------------------------------------|
G|------------------------------------------------|
D|-------------------------------------------1----|
A|-------------------------------------------1----|
D|-3p0-0-5p0-0-6p0-0-7p0-0-3p0-0-5p0-0-0--0--1----|
                                       .  .

Have Fun!

Anders
            
Submit corrections

comments powered by Disqus
↑ Back to top | Volbeat Tabs for Caroline Leaving. Lyrics for acoustic guitar and electric guitar. Tablatures and chords are parodies/interpretations of the original songs. You may use it for private study, scholarship, research or language learning purposes only