» » »

Vogelfrei, Stiefeljungs Tabs (ver.1)

Artists:  A B C D E F G H I J K L M N O P Q R S T U V W X Y Z # 

Stiefeljungs Tabs (ver.1)

Vogelfrei Tabs
 Rating:
4/5 (4 votes)
Stiefeljungs lessons Tabs too difficult? Try these video lessons and learn fast
                Lied: Stiefeljungs
Band: Vogelfrei


Intro
e--------------------------------------------------3-------------|
h-------1-0h1-------1-0h1---------1-0h1--------------3-----------|
g-----2-----------2------2------2------2---------0-----0---------|
D---2-----------2----------2--3----------3-----0---------0-------| 4mal
A-0-----------0--------------3---------------2-------------0-----|
E------------------------------------------3---------------------|

danach

e---------------------------------------------------|
h---------------------------------------------------|
g---------------------------------------------------|
D-7----7-7-7-7-7-7-3-3-3-5-5-5----------------------|
A-7----7-7-7-7-7-7-3-3-3-5-5-5----------------------|
E-5----5-5-5-5-5-5-1-1-1-3-3-3----------------------|

Alle Strophen und übergang
e---------------------------------------------------|
h---------------------------------------------------|
g---------------------------------------------------|
D-7-7-7-7-7-7-3-3-3-5-5-5---------------------------|
A-7-7-7-7-7-7-3-3-3-5-5-5---------------------------|
E-5-5-5-5-5-5-1-1-1-3-3-3---------------------------|

Refrain
e---------------------------------------------------|
h---------------------------------------------------|
g---------------------------------------------------|
D-7-7-7-3-3-3-7-7-7-3-3-3-7-7-7-3-3-3-3-5-5-5-5-----|
A-7-7-7-3-3-3-7-7-7-3-3-3-7-7-7-3-3-3-3-5-5-5-5-----|
E-5-5-5-1-1-1-5-5-5-1-1-1-5-5-5-1-1-1-1-3-3-3-3-----|

Gitarrensolo
e-----------------------------------------------------------------------|
h-----------------------------------------------------------------------|
g-9---7-9-10-12-9-7-5-7-9-7-9-10-12-9-7p8-5-------5-------5-7-4---------|
D-------------------------------------------7-5h7---7-5h7-------7-5-7---|
A-----------------------------------------------------------------------|
E-----------------------------------------------------------------------|

e------------------------------------------------------------------|
h------------------------------------------------------------------|
g---4-5-7-9-7-5-4---4-5-7-4----------4-5-7-4-----------------------|
D-7---------------7---------7-5h7-7-7------------------------------|
A------------------------------------------------------------------|
E------------------------------------------------------------------|
            
Submit corrections

comments powered by Disqus
↑ Back to top | Vogelfrei Tabs for Stiefeljungs. Lyrics for acoustic guitar and electric guitar. Tablatures and chords are parodies/interpretations of the original songs. You may use it for private study, scholarship, research or language learning purposes only