» » »

Vogelfrei, Dieses Leben Tabs (ver.1)

Artists:  A B C D E F G H I J K L M N O P Q R S T U V W X Y Z # 

Dieses Leben Tabs (ver.1)

Vogelfrei Tabs
 Rating:
4/5 (4 votes)
Dieses Leben lessons Tabs too difficult? Try these video lessons and learn fast
                Band:     Vogelfrei
Lied:     Dieses Leben

Intro und Übergang
e-----------------------------------------------------|
h-----------------------------------------------------|
G-0-2-4-5-4-2-0-2-4-5-4-2-0-2-4-5-4-5-7-5-4-0-2-------|
D-----------------------------------------------------|
A-----------------------------------------------------|
E-----------------------------------------------------|

Alle Strophen
e------------------------------------------------------|
h------------------------------------------------------|
G---------------5-5-5-5-5-7-7-7-7----------------------|
D-5-5-5-5-2-2-2-5-5-5-5-5-7-7-7-7----------------------|
A-5-5-5-5-2-2-2-3-3-3-3-3-5-5-5-5----------------------|
E-3-3-3-3-0-0-0----------------------------------------|

Refrain
e------------------------------------------------------|
h------------------------------------------------------|
G-5-5-5-5-7-7-7-7---5-5-7-7---5-5-7-7---5-5-7-7--------|
D-5-5-5-5-7-7-7-7-2-5-5-7-7-2-5-5-7-7-2-5-5-7-7-5------|
A-3-3-3-3-5-5-5-5-2-3-3-5-5-2-3-3-5-5-2-3-3-5-5-5------|
E-----------------0---------0---------0---------3------|
            
Submit corrections

comments powered by Disqus
↑ Back to top | Vogelfrei Tabs for Dieses Leben. Lyrics for acoustic guitar and electric guitar. Tablatures and chords are parodies/interpretations of the original songs. You may use it for private study, scholarship, research or language learning purposes only