» » »

Vixen, Rev It Up Tabs (ver.1)

Artists:  A B C D E F G H I J K L M N O P Q R S T U V W X Y Z # 

Rev It Up Tabs (ver.1)

Vixen Tabs
Rating:
0/5 (0 votes)
Rev It Up lessons Tabs too difficult? Try these video lessons and learn fast
                #------------------------------------------------------------------------------##

Vixen "Rev it Up"

drums
intro                                     w/bar
----------|-------------------------------------|-----------------------|
----------|--------------------------------4~---|-----------------------|
----------|--------1---3~-----1------------3~---|--------%--------------|
----------|--3-----1---3~-----1--3-----6---1~---|-----------------------|
----x\----|--3-------------------3-----6--------|-----------------------|
----x\----|--1-------------------1-----4--------|-----------------------|

Verse

|--------------------------------------------|
|--------------------------------------------|
|--------------------------------------------|
|5-5-5-5-5-3-5-5-5-5-5-5-3-5-5-5-3-5-3-5-3---|
|3-3-3-3-3-1-3-3-3-3-3-3-1-3-3-3-1-3-1-3-1---|
|--------------------------------------------|


We were just startin' out on a dream
Young enough to believe
Everyone was on our side
And no one would deceive
Sometimes the truth gets served on a knife
You gotta stand up and fight
We turned to each other and kicked it in gear
To earn our rock n' roll right

Pre-Chorus

|-----------------------------------------------------------------------|
|-----------------------------------------------------------------------|
|-----------------------------------------------------------------------|
|-----------------------------------------------------------------------|
|-5--6\----------------------------------5--6---------------------------|
|-3--4\----------------------------------3--4---------------------------|
Woah Woah, In a world full of heartache  Jealousy wars a friendly face


|-----------------------------------------------------------------------|
|-----------------------------------------------------------------------|
|-----------------------------------------------------------------------|
|-----------------------------3--3--3--3--3--3--3--3-----5--5--5-----5--|
|-5---6\----------------------1--1--1--1--1--1--1--1-----3--3--3-----3--|
|-3---4\----------------------------------------------------------------|
 Woah woah, We can hold on,   You can't keep a fast car out of the race


|--------|--------------------------------------------------------------|
|--------|--------------------------------------------------------------|
|--------|-6-------------8----------------------------------------------|
|5-5-5---|-6-------------8--------------------3-------------3-----------|
|3-3-3---|-4-------------6--------------------3-------------3-----------|
|--------|------------------------------------1--1-3p1-4p1--1-1-3p1-4p1-|
          Give it all (Give it all you got), Rev it up, rev it up,


|-------------------------------------------|----------------------------|
|-------------------------------------------|----------------------------|
|-6------------8----------------------------|---6-------8~---------------|
|-6------------8----3-----------3-----------|---6----6s-8~---------------|
|-4------------6----3-----------3-----------|---4------------------------|
|-------------------1-1-3p1-4p1-1-1-3p1-4p1-|----------------------------|
Push it to the top, Rev it up   Rev it up    If anyone tries to hold you back

-------------------------------------------------------------------------|
--------------------------------------------------------------------4~---|
--------------------------------------------------------------------3~---|
-----------5--6------6--5--3----------------------------3-----------1~---|
-----------3--4------4--3--1----------------------------3----------------|
--------------------------------------------------------1-3p1-4p1-1------|
Don't let em run you off the track  Give it all you got  Rev it up


Verse
Burnin' with the hope of the innocent
Ready to own tomorrow
We were gonna set the nights on fire
But doubt pierced like an arrow

Pre-Chorus
When no one's in your corner
Dig down deep and you'll find your pride
Floor it all the way
What's behind the wheel can't be denied

Chorus

Bridge
|---3-------------------------------1-----------------------------------|
|-----3-----3---------------------1---1---------------------------------|
|-------5-----5-----------------3-------3-------------------------------|
|---------5-------------------3-----------------------------------------|
|-----------------------------------------------------------------------|
|-----------------------------------------------------------------------|
Every fighter takes a fall but don't give up tryin'
Sometimes you fly Sometimes you crawl one step at a time


Solo
|----------|------------------|----------------|-------------------------|
|-8h11-t13-|------------------|----------------|-------------------------|
|----------|--------%---------|------%---------|---------%---------------|
|----------|------------------|----------------|-------------------------|
|----------|------------------|----------------|-------------------------|
|----------|------------------|----------------|-------------------------|


|----------|------------|--------------|-------------|------------------|
|-8h11-t14-|-8h11-t15---|--------------|-------------|-8h11-t16---------|
|----------|------------|-------%------|-----%-------|------------------|
|----------|------------|--------------|-------------|------------------|
|----------|------------|--------------|-------------|------------------|
|----------|------------|--------------|-------------|------------------|

                                 1/4
|---------------|-------------|---------------|--------------------------|
|-8h11--t17-----|-------------|--17b\---------|--------------------------|
|---------------|------%------|--------13\----|--11--13--13--11-13-11----|
|---------------|-------------|---------------|--11--13--13--11-------13-|
|---------------|-------------|---------------|--------------------------|
|---------------|-------------|---------------|--------------------------|

                  1/2                                           1/2
|-----------------------|-16-13-----------------------------------------|
|-----------------------|-------16-13-----------------------------------|
|-----------9-11-11b----|--------------13-10----------------------------|
|------9-11-------------|--------------------13-10---6--3---------------|
|-9-11------------------|----------------------------------6--3---------|
|-----------------------|----------------------------------------3b-----|


Pre-Chorus
Hold on tighter
When the ride gets a little rough
Don't give in, don't give up

Chorus


Ending
|--------------------------------------------| guitar 1 cont to play
|--------------------------------------------|
|--------------------------------------------|
|5-5-5-5-5-3-5-5-5-5-5-5-3-5-5-5-3-5-3-5-3---|
|3-3-3-3-3-1-3-3-3-3-3-3-1-3-3-3-1-3-1-3-1---|
|--------------------------------------------|

Guitar 2
|-------------------------|---------------------------------------------|
|-------------------------|---------------------------------------------|
|-------------------------|---------------------------------------------|
|-------------------------|---------------------------------------------|
|-(1)s3~--6--3~-----------|-3~----6----3~-------------------------------|
|-------------------------|---------------------------------------------|


|-3--5--3--5----3--5--3--5--|
|-3--5--3--5----3--5--3--5--|
|---------------------------|
|-1--3--1--3----1--3--1--3--|
|---------------------------|
|---------------------------|

fade out
            

comments powered by Disqus
↑ Back to top | Vixen Tabs for Rev It Up. Lyrics for acoustic guitar and electric guitar. Tablatures and chords are parodies/interpretations of the original songs. You may use it for private study, scholarship, research or language learning purposes only