>
 >
Fallen Hero

Fallen Hero Guitar Tabs

Vixen - Fallen Hero chords, tabs, tablatures, lyrics

Guitar lessons | Add/correct | Request | Top 50 tabs Artists:  A B C D E F G H I J K L M N O P Q R S T U V W X Y Z 0-9

Fallen Hero Guitar Tabs – Vixen

CD, Sheet music, Poster

Do you like Fallen Hero? Share with your friends now
TabsTabs v2
#------------------------------------------------------------------------------##
#



Vixen - Fallen Hero
The Music Shop BBS (619)423-4970

Intro (With Keyboards)

------------------------------|--------------------------------------------|
------------------------------|--------------------------------------------|
-------9--7-------------------|--------9--7-----5*-------------------------|
--5/7--------7--5/7--7-7-7-7--|---5/7--------7------7--7-7-7-7-------------|
------------------------------|--------------------------------------------|
------------------------------|--------------------------------------------|


Verse w/vocals

--------------------------------|
--------------------------------|
--------------------------------|
------7-7-7-7-7-7-7-7--pedal----|
--------------------------------|
--------------------------------|

Pre-Chorus
                             A     G     A
----------------------------------------------------------------------------|
----------------------------------------------------------------------------|
----/12-12\------------------2-----------2-----7b(8)-rb7--5~-7b(8)--rb7--5~-|
----/12-12\-----x\-----------2-----5-----2----------------------------------|
----------------x\-----------0-----5-----0----------------------------------|
----------------x\-----------------3----------------------------------------|

    A       A     B     C     D
----------------------------------------------------------------------------|
----------------------------------------------------------------------------|
----2------2------4-----5-----7---------------------------------------------|
----2------2------4-----5-----7---------------------------------------------|
----0------0------2-----3-----5---------------------------------------------|
----------------------------------------------------------------------------|

Chorus
Fallen Hero...
   A              F    F#                           A       F    F#   G
-------------------------------------------------|--------------------------|
-------------------------------------------------|--------------------------|
---2---------------------------------------------|--2-----------------------|
---2--------------3------------------------------|--2-------3---------------|
---0--------------3-----5---3--3p2---0--2p0------|--0-------3----5----5--5--|
------------------1-----2---------------------3--|----------1----2----3--3--|


                   Too Late, tough break
                    A        F    F#                           A      F
------------------|-----------------------------------------|---------------|
------------------|-----------------------------------------|---------------|
---7--7--5--------|-2---------------------------------------|--2------------|
---7--7--5--7-----|-2--------3------------------------------|--2-------3----|
------------7-----|-0--------3-----5---3--3--2--0--2--0-----|--0-------3----|
------------------|----------1-----2---------------------3--|----------1----|


How many others
--------------------|
--------------------|
--------------------|
--------------------|
----------5--5------|
----------2--2------|

Repeat Intro 1x
Verse with these fills

---15b(17)~~~---------------------------------------------------------------|
--------------------------13--15--13--15b(17)slow---------------------------|
-----------------------------------------------------17-17--15------/12-12\-|
-----------------------------------------------------17-17--15------/12-12\-|
----------------------------------------------------------------17----------|
----------------------------------------------------------------------------|


End of 2nd Verse
                                            Now the story lives on...
-----------------------------------------|----------------------------------|
-----------------------------------------|---8-----------8--8---------------|
---------------------------------7hold---|---7-----------7--7---------------|
---5-/-7---5-/-7--5-/-7-----5----7-------|---5--5--5--5--5--5---------------|
---5-/-7---5-/-7--5-/-7-----5----5-------|----------------------------------|
---3-/-5---3-/-5--3-/-5-----3------------|----------------------------------|

  Bminor                                                Yeah, yeah..
-----------------------------|----------------------------------------------|
---3--3p2------3p2-----------|----------------------------------------------|
----------4--------4---------|---5-------2----------------4-----------------|
------------4--------4-------|---5-------2----------------4--hold-----------|
-----------------------2-----|---3-------0----------------2-----------------|
-----------------------------|----------------------------------------------|


Lead

----------------------------------------12----14----15----14----15----------|
--15b(17)~---12-13-12-13--13b(15)----12----12----12----12----12----12-------|
----------------------------------------------------------------------------|
----------------------------------------------------------------------------|
----------------------------------------------------------------------------|
----------------------------------------------------------------------------|


--17b(19)-------------------------------------------------------------------|
--------------17p15-------17--17b(19)--------------------------------15-----|
---------------------16---------------------5*w/bar------19b---14h16--------|
--------------------------------------------5*-----------19b----------------|
----------------------------------------------------------------------------|
----------------------------------------------------------------------------|


Pre-Chorus
Chorus
Fade Out
=======================================================================
h = hammeron                    Judy Letostak
t = tap (right hand)            The Music Shop BBS (619)423-4970 24hrs
~ = vibrato                     * = picked harmonic
bf = bend full                  tr = trill
rb = release bend               p.s. = pick scrape
dive = dive with bar            b = bend / step written over note
========================================================================
The Music Shop BBS (619)423-4970  24hrs
In a band?  Want some exposure?  I have a file area for bands
will take anything that can be put on a computer...Lyrics, pictures, sound





Comments


Popular Vixen tabs & chords
Streets In Paradise Bass Tabs
Edge Of A Broken Heart Chords
Edge Of A Broken Heart Intro Tabs
Fallen Hero 1 Tabs
Hard 16 Tabs
How Much Love 1 Tabs
Love Made Me Tabs
Not A Minute Too Soon Tabs
Not A Minute Too Soon 1 Tabs
Streets In Paradise 1 Tabs


Song lyrics



↑ Back to top | Tablatures and chords are parodies/interpretations of the original songs. You may use it for private study, scholarship, research or language learning purposes only
© 2014 AZChords.com Contact us | Privacy policy | DMCA | Add/correct tabs | Request tabs | Top 50 tabs