» » »

Edge Of A Broken Heart Bass tabs (ver.1)

Artists:  A B C D E F G H I J K L M N O P Q R S T U V W X Y Z # 

Edge Of A Broken Heart Bass tabs (ver.1)

Vixen
Rating:
0/5 (0 votes)

Hard to play? Try these video lessons and learn fast.
                -----------------|------------------| x4
-----5---3h5-3h5-|---------0-0------|
-----------------|-3-3-1-------3-1--|
-3-3-------------|-------3----------|

------------------| x8
-----5---3h5-3h5--|
------------------|
-3-3--------------|


-----------------|-------------------------------|
-----------------|-------------------------------|
-8-8-8-8-8-8-8-8-|-10-10-10-10-10-10-10-10-10-10-|
-----------------|-------------------------------|

-----------------|-----------------|
-----------------|-----------------|
-6-6-6-6-6-6-6-6-|-6-6-6-6-6-6-5-6-|
-----------------|-----------------|

-----------------|-------------------------------|
-----------------|-------------------------------|
-8-8-8-8-8-8-8-8-|-10-10-10-10-10-10-10-10-10-10-|
-----------------|-------------------------------|

-----------------|-----------------|
-----------------|-----------------|
-6-6-6-6-6-6-6-6-|-6-------8-------|
-----------------|-----------------|

-----------------|-----------------|-----------------|-----------------|
-----------------|-----------------|-----------------|-----------------|
-----------------|-----------------|-6-6-6-6-6-6-6-5-|-6-6-6-5-6-6-6-5-|
-6-6-6-6-6-6-6-6-|-5-5-5-5-5-5-5-5-|-----------------|-----------------|

-----------------|-----------------|-----------------|-----------------|
-----------------|-----------------|---5-------------|-----------------|
-----------------|-----------------|-5---3-6-6-6-6-5-|-6-6-6-6-8-8-8-8-|
-6-6-6-6-6-6-6-6-|-5-5-5-5-5-5-5-5-|-----------------|-----------------|


-----------------|------------------| x2
-----5---3h5-3h5-|---------0-0------|
-----------------|-3-3-1-------3-1--|
-3-3-------------|-------3----------|

------------------| x8
-----5---3h5-3h5--|
------------------|
-3-3--------------|


-----------------|-------------------------------|
-----------------|-------------------------------|
-8-8-8-8-8-8-8-8-|-10-10-10-10-10-10-10-10-10-10-|
-----------------|-------------------------------|

-----------------|-----------------|
-----------------|-----------------|
-6-6-6-6-6-6-6-6-|-6-6-6-6-6-3-5-6-|
-----------------|-----------------|

-----------------|-------------------------------|
-----------------|-------------------------------|
-8-8-8-8-8-8-8-8-|-10-10-10-10-10-10-10-10-10-10-|
-----------------|-------------------------------|

-----------------|-----------------|
-----------------|-----------------|
-6-6-6-6-6-6-6-6-|-6-------8---8---|
-----------------|-----------------|


-----------------|-----------------|-----------------|-----------------|
-----------------|-----------------|-----------------|-----------------|
-----------------|-----------------|-6-6-6-6-6-6-6-5-|-6-6-6-5-6-6-6-5-|
-6-6-6-6-6-6-6-6-|-5-5-5-5-5-5-5-5-|-----------------|-----------------|

-----------------|-----------------|-----------------|-----------------|
-----------------|-----------------|---5-------------|-----------------|
-----------------|-----------------|-5---3-6-6-6-6-5-|-6-6-6-6-8-8-8-8-|
-6-6-6-6-6-6-6-6-|-5-5-5-5-5-5-5-5-|-----------------|-----------------|


-----------------| x3
-----------------|
-5-----6-6-------|
-----------------|

-----------------|-----------------|
-----------------|-----------------|
-----------------|-----------------|
-1-1-1-1-1-1-1-1-|-1---------------|


------------------| x16
-----5---3h5-3h5--|
------------------|
-3-3--------------|


-----------------|-------------------------------|
-----------------|-------------------------------|
-8-8-8-8-8-8-8-8-|-10-10-10-10-10-10-10-10-10-10-|
-----------------|-------------------------------|

-----------------|-----------------|
-----------------|-----------------|
-6-6-6-6-6-6-6-6-|-6-6-6-6-6-3-5-6-|
-----------------|-----------------|

-----------------|-------------------------------|
-----------------|-------------------------------|
-8-8-8-8-8-8-8-8-|-10-10-10-10-10-10-10-10-10-10-|
-----------------|-------------------------------|

-----------------|-----------------|
-----------------|-----------------|
-6-6-6-6-6-6-6-6-|-6-------8---8---|
-----------------|-----------------|


||-----------------|-----------------|-----------------|-----------------|
||-----------------|-----------------|-----------------|-----------------|
||-----------------|-----------------|-8-8-8-8-8-8-8-7-|-8-8-8-7-8-8-8-8-|
||-8-8-8-8-8-8-8-8-|-7-7-7-7-7-7-7-7-|-----------------|-----------------|

-----------------|-----------------|-----------------|--------------------| x5
-----------------|-----------------|---7-5-----------|--------------------|
-----------------|-----------------|-7-----8-8-8-8-8-|-8-8-8-8-8-10-10-12-|
-8-8-8-8-8-8-8-8-|-7-7-7-7-7-7-7-7-|-----------------|--------------------|
            
Hard to play? Try these video lessons and learn fast. | Correct




comments powered by Disqus
↑ Back to top | Tablatures and chords are parodies/interpretations of the original songs. You may use it for private study, scholarship, research or language learning purposes only