» » »

Virgin Steele, We Tule The Night Tabs (ver.1)

Artists:  A B C D E F G H I J K L M N O P Q R S T U V W X Y Z # 

We Tule The Night Tabs (ver.1)

Virgin Steele Tabs
Rating:
0/5 (0 votes)
We Tule The Night lessons Tabs too difficult? Try these video lessons and learn fast
                

band:  Virgin Steele

Copyright (c)  TT 1996
Version 1.0 - 26.07.2005

TRANSCRIBED: Joni Fred 


Tunning E B G D A E

^^ = hold 


0.29


riff 1

|guitar 1
|                                                       4x
|----------------------------------------------------------|
|----------------------------------------------------------|
|---9----7-----5----5----4^^---12----10----9-----10^^------|
|--10----9-----7----7----5^^---14----12----10----12^^------|
|-----00---00----00---00----------00----00----00-----------|
|----------------------------------------------------------|
|
|guitar 2
|
|----------------------------------------------------------|
|----------------------------------------------------------|
|-2--------------------------------------------------------|
|-2-------------------------------------------------2-3-4--|
|-0-------------------------------------------------0-3-2--|
|----------------------------------------------------------|

riff 2
	                    4x
|------------0----------------|
|------------0--let ring------|
|--------2---2----------------|
|-5-4----2--------------------|
|-3-2-0-----------------------|
|-----------------------------|


verse riff

|-------------------------------------------------------------------|
|-------------------------------------------------------------------|
|-------------------------------------------------------------------|
|-------------------------------------------------------------------|
|-7----7----7----7----7----7----7----7----2----2----2----2----2-----|
|-5-55-5-55-5-55-5-55-5-55-5-55-5-55-5-55-0-00-0-00-0-00-0-00-0-00--|

|-------------------------------------------------------------------|
|-------------------------------------------------------------------|
|-------------------------------------------------------------------|
|--------------------------------------------------------5----5-----|
|-2----2----2----3----3----3----3----3----3----3----3----3-33-3-33--|
|-0-00-0-00-0-00-1-11-1-11-1-11-1-11-1-11-1-11-1-11-1-11------------|

			        2x fill 1. time
|----------------------------------|-------|
|----------------------------------|-------|
|----------------------------------|-------|
|-5----5---------------------------|-------|
|-3-33-3-33---5----5----5----5-----|--02-3-|
|-------------3-33-3-33-3-33-3-33--|-------|


middle part

|------------|-------|
|------------|-------|
|------------|-------|
|-4--4--4--4-|--4-4--|
|-2--2--2--2-|--2-2--|
|------------|-------|

riff 5

|----------------------------------------------------------------|
|----------------------------------------------------------------|
|---------------------------------------9----7----5----5----4^^--|
|--7^^----------------------------7^^--10----9----7----7----5^^--|
|--5^^--8^^-10^^-8p7^^-787--787---5^^-----00---00---00---00------|
|-------------------------8----8---------------------------------|

chorus riff:

|-----------------------------------------------------------|
|-----------------------------------------------------------|
|----------------------------------------7----7----7--------|
|-7----7----7--------3----3----3------2--7----7----7----7-5-|
|-7----7----7----7-5-3----3----3----3-2--5-55-5-55-5-55-5-3-|
|-5-55-5-55-5-55-5-3-1-11-1-11-1-11-1-0---------------------|

                          2x
|---------------------------|
|---------------------------|
|--9----7----5----5----4^^--|
|-10----9----7----7----5^^--|
|----00---00---00---00------|
|---------------------------|

riff 1 
riff 3
middle part
riff 5
chorus riff

solo riffs

riff 1 = solo riff repeat 4x

riff 6

|------------------------------------------------------|
|------------------------------------------------------|
|------------------------------------------------------|
|-9^^--10-7-7-9^^-5--12--10--9^^--10-7-7-9^^-5--12-10--|
|-7^^--8--5-5-7^^-3--10--8---7^^--8--5-5-7^^-3--10-8---|
|------------------------------------------------------|

chorus riff
riff 1

ending riff

|-----------------------------------------------|
|-----------------------------------------------|
|-----------------------------------------------|
|-2-4-5-6-----7----------------2-------------7--|
|-0-2-3-4-3-5-7--crashing end--2--bass solo--7--|
|---------1-3-5----------------0-------------5--|


|-----------------------------------------------------|
|-----------------------------------------------------|
|-----------------------------------------------------|
|-7-----7-----7-----7------7-x--7-x--7-x-7-x--7-^^-7--|
|-7-----7-----7-----7------7-x--7-x--7-x-7-x--7-^^-7--|
|-5-555-5-555-5-555-5-555--5-x--5-x--5-x-5-x--5-^^-5--|



end>>>>>>>>>>>>>>>>>>>>>>>>>>>>>>>>>>>>>>>>>>>>>>>
            
Submit corrections

comments powered by Disqus
↑ Back to top | Virgin Steele Tabs for We Tule The Night. Lyrics for acoustic guitar and electric guitar. Tablatures and chords are parodies/interpretations of the original songs. You may use it for private study, scholarship, research or language learning purposes only