>
 >
Victory Is Mine

Victory Is Mine Bass Tabs

Virgin Steele - Victory Is Mine chords, tabs, tablatures, lyrics

Guitar lessons | Add/correct | Request | Top 50 tabs Artists:  A B C D E F G H I J K L M N O P Q R S T U V W X Y Z 0-9

Victory Is Mine Bass Tabs – Virgin Steele

CD, Sheet music, Poster

Do you like Victory Is Mine? Share with your friends now
Bass Tabs



Pre-Verse

|--------|--------|--------|
|--------|--------|--------|
|--------|---5----|---0----|
|--0000--|--------|--------|
|________|
    x 6



Verse

|--------|--------|--------|--------|--------|
|--------|--------|--------|--------|--------|
|--------|--3333--|--5555--|---5----|--3-5---|
|--0000--|--------|--------|--------|--------|
|________|________|________|
    x 4	     x 4      x 6



Pre-Chorus

			       1	 	   2
			   ______________________________
			   ||	     	      ||
|--------|--------|--------||--------|--------||--------|
|--------|--------|--------||--------|--------||--------|
|--5555--|--7777--|--5555--||---5----|--3-5---||---0----|
|--------|--------|--------||--------|--------||--------|
|________|________|________|
    x 2	     x 2      x 2



Chorus

|--------|--------|--------|--------|--------|
|--------|--------|--------|--------|--------|
|--------|--------|--3333--|---5----|--0335--|
|--12\---|--0000--|--------|--------|--------|
         |________|________|
	     x 4      x 2



Special 1

|--------|--------|
|--------|--------|
|--0000--|--2222--|
|--------|--------|
|________|________|
   x 16     x 16



Fill

|--------|--------|--------|--------|--------|--------|--------|
|--------|--7532--|--0-----|--------|--------|--7532--|--0-----|
|--5555--|--------|---320--|--0000--|--5555--|--------|---320--|
|--------|--------|--------|--------|--------|--------|--------|
|________|		   |________|________|
    x 2      		       x 4	x 2

|--------|--------|--------|--------|
|--------|--------|--------|--------|
|--------|--------|--------|--------|
|--0-3-5-|-7-8-10-|---12---|---0----|


Special 2

|--------|--------|--------|--------|--------|--------|--------|--------|
|--------|--------|--------|--------|--------|--------|--------|--------|
|---5----|---7----|---8----|---888\-|---5----|---7----|---8----|---888\-|
|--------|--------|--------|--------|--------|--------|--------|--------|

|--------|--------|--------|--------|--------|--------|--------|--------|
|--------|--------|--------|--------|--------|--------|--------|--------|
|---5----|---7----|---8----|---888\-|---5----|---7----|---8----|---888\-|
|--------|--------|--------|--------|--------|--------|--------|--------|

|--------|--------|--------|--------|--------|--------|--------|
|--------|--------|--------|--------|--------|--------|--------|
|---5----|---7----|---8----|---888\-|---5----|---7----|---8----|
|--------|--------|--------|--------|--------|--------|--------|

|--------|--------|--------|--------|
|--------|--------|--------|--------|
|--0000--|--2222--|--3333--|---0----|
|--------|--------|--------|--------|
|________|________|________|
    x 2      x 2      x 2



Ending

|--------|
|--------|
|--------|
|---12\--|




PLAY:

Chorus x 4
Pre-Verse
Verse x 2
Pre-Chorus
Chorus x 2
Pre-Verse
Verse x 2
Pre-Chorus
Chorus x 4
Special 1
Chorus x 4
Fill
Chorus x 4
Special 2
Ending


For any comments, questions, etc please contact me





Comments


Popular Virgin Steele tabs & chords
God Of Our Sorrows Chords
When The Legends Die Chords
Burning Of Rome (Cry For Pompeii) Tabs
Hellfire Woman Tabs
I Wake Up Screaming Tabs
I Will Come For You Tabs
Perfect Mansions Mountains Of The Sun Tabs
Rising Unchained Intro Tabs
We Tule The Night Tabs
Forever Will I Roam Ukulele


Song lyrics



↑ Back to top | Tablatures and chords are parodies/interpretations of the original songs. You may use it for private study, scholarship, research or language learning purposes only
© 2014 AZChords.com Contact us | Privacy policy | DMCA | Add/correct tabs | Request tabs | Top 50 tabs