» » »

Virgin Steele, Transfiguration Bass tabs (ver.1)

Artists:  A B C D E F G H I J K L M N O P Q R S T U V W X Y Z # 

Transfiguration Bass tabs (ver.1)

Virgin Steele Tabs
 Rating:
4/5 (4 votes)
Transfiguration lessons Tabs too difficult? Try these video lessons and learn fast
                


Verse

|-------|-------|-------|-------|
|-------|-------|-------|-------|
|---2---|-------|-------|-------|
|-------|---3---|---0---|---5---|



Pre-Chorus

|-------|-------|-------|
|-------|-------|-------|
|-------|-------|-------|
|---3---|---5---|---8---|



Chorus

|-------|-------|-------|-------|-------|-------|-------|
|-------|-------|-------|-------|-------|-------|-------|
|---7---|---3---|---2---|---5---|---3---|--5-2--|-------|
|-------|-------|-------|-------|-------|-------|---3---|
|_______________________________|
               x 3


Solo 1

|-------|-------|
|-------|-------|
|-------|--0-22-|
|---0---|-------|



Fill

|-------|-------|-------|
|-------|-------|-------|
|---2---|---0---|-------|
|-------|-------|---3---|


Solo 2

|-------|-------|-------|-------|
|-------|-------|-------|-------|
|---2---|---0---|-------|-------|
|-------|-------|---3---|--3-33-|




PLAY:

Verse x 2
Pre-Chorus x 2
Chorus
Solo 1 x 7
Fill
Solo 1 x 4
Fill
Verse x 3
Pre-Chorus x 2
Chorus
Solo 2 x 6


For any comments, questions, etc please contact me
            
Submit corrections

comments powered by Disqus
↑ Back to top | Virgin Steele Bass for Transfiguration. Lyrics for acoustic guitar and electric guitar. Tablatures and chords are parodies/interpretations of the original songs. You may use it for private study, scholarship, research or language learning purposes only