» » »

The Wine Of Violence Tabs (ver.1)

Artists:  A B C D E F G H I J K L M N O P Q R S T U V W X Y Z # 

The Wine Of Violence Tabs (ver.1)

Virgin Steele
Rating:
0/5 (0 votes)

Hard to play? Try these video lessons and learn fast.
                intro riff

guitar 1
|---------------------------------------------------------------|
|---------------------------------------------------------------|
|-------11-12^^-9-11^^-7-9-7-----------5-7^^-4-5^^-2-4-2--------|
|-12-14----------------------10^^--7-9-------------------5^^----|
|---------------------------------------------------------------|
|---------------------------------------------------------------|
|guitar 2
|---------------------------------------------------------------|
|---------------------------------------------------------------|
|---------------------------------------------------------------|
|-----------9------7----------------------------5--------9------|
|-----------7------5---------7------------5-----3--------7------|
|----------------------------5------------3---------------------|

guitar1
|---------------------------------------------------------------|
|-----------------------12-15-14-12^^---------------------------|
|-------11-12^^-12-14^^------------------5-7^^-4-5^^------------|
|-12-14------------------------------7-9--------------4-5-4-----|
|-----------------------------------------------------------7^^-|
|---------------------------------------------------------------|
|guitar 2
|---------------------------------------------------------------|
|---------------------------------------------------------------|
|---------------------------------------------------------------|
|----------9-------7-------------4----------7--------------9----|
|----------7-------5-------------2----------5----7---------7----|
|------------------------------------------------5--------------|

&&

riff a

|---------------------------------------------------|
|---------------------------------------------------|
|----------------------7-----------------------10---|
|-----676^^------------7------676^^-----9109^^-10---|
|---------------8108^^-5-----------------------8----|
|-000--------00-----------000-------000-------------|

riff b = verse riff
			1. end		2. end
|------------------|----------------|---------------------|
|------------------|----------------|---------------------|
|------------------|--------------7-|--------------10-----|
|--listen record---|--676^^-------7-|-676^^-9109^^-10-----|
|------------------|-------8108^^-5-|--------------8------|
|-000-000-000-000--|----------------|---------------------|

riff c

|----------------------------------------------------|
|----------------------------------------------------|
|----------------------------------------------------|
|---7-5-3---5-7-----2--3--5-3-2-----7-5-3-5-7---4----|
|-5---------3-5-----2--3--5-3-2---5-------3-5---2^^--|
|-3-------------00---0--0---------3------------------|

riff d = chorus

|--------------------------------------------------------------------|
|--------------------------------------------------------------------|
|---5------7----7----5------7---7------5------7----7----5------------|
|-2-5-5-xx-7----7--2-5-5-xx-7---7----2-5-5-xx-7----7--2-5------------|
|-2-3-5-xx---55----2-3-5-xx--55------2-3-5-xx---55----2-3--232-------|
|-0---3------------0---3-------------0---3------------0--------323---|


&&

riff e
				       2x
|----------------------------------------|
|----------------------------------------|
|----------------------------------------|
|--listen record----9---7---5------------|
|-------------------7---5---3--let ring--|
|-000-000-000-000-0---0---0--------------|

riff f
this part is #¤%& weird

			  2x		      4x	2x	    2x
|---------------------------|-------|-----------|---------|------------|
|---------------------------|-------|-----------|---------|------------|
|---------------------------|-------|-----------|---------|------------|
|--------77--------77-------|-------|-----------|---------|-4--6-8-----|
|-7-5-3--77--7-5-3-77-8--12-|-------|-----------|-5--7-9--|------------|
|--------55--------55-6--10-|--8----|-8---10-12-|---------|------------|

riff g

|--------------------------------------------------------------------|
|--------------------------------------------------------------------|
|---------------------------5----------------------------------------|
|------7----5---7-------5-7---7-5-7^^----7---5---7-------5-7-5-------|
|---00----0---0---0-5-7---------------00---0---0---0-5-7-------7-5---|
|------------------------------------------------------------------7-|

								2x
|--------------------------------------------------------------------|
|--------------------------------------------------------------------|
|--------------------------------------------------------------------|
|------------------------5-------------------------------------------|
|----7---5---7-------5-7---7-5-7^^-----7---5---7---------5-----------|
|-00---0---0---0-5-7----------------00---0---0---0-5-7-8---8-7-5-3---|

solo part

rhythm
|---------------|
|---------------|
|---------------|
|--11--7--2--4--|
|--9---5--0--2--|
|---------------|


after solo riff h

|----------|----------------------|
|----------|----palm mute----------|
|----------|----------------------|
|----------|--7-5----------5-7^^--|
|--000-000-|------8-7-5-7-8-------|
|----------|----------------------|

|--------------------------------------------|
|--------------------------------------------|
|--------------------------------------------|
|--7-5-----7-5-----7-5-----7-5---------------|
|------8-7-----8-7-----8-7-----8-7--232------|
|---------------------------------------323--|

chorus riff
riff e

riff j

|--play mute -----------------------------------------------2----|
|-------------------------------------------------------3-5------|
|-------------------------------------------------2-4-5----------|
|-------------2-------------2---------------2-4-5----------------|
|-------2-3-5---------2-3-5-----------2-3-5----------------------|
|-2-3-5---------2-3-5-----------2-3-5----------------------------|

riff a

riff i

|-listen record you'll get idea-----------|
|-----------------------------------------|
|-----------------------------------------|
|-2-1212--2-1414--2-1616--1614-1412-1211--|
|-2-1010--2-1212--2-1414--1412-1210-109---|
|-0-------0-------0-----------------------|

end riff
I'll but only bass

|--------------------|
|--------------------|
|--------------------|
|-0----5----1-0------|

end
            
Hard to play? Try these video lessons and learn fast. | Correct




comments powered by Disqus
↑ Back to top | Tablatures and chords are parodies/interpretations of the original songs. You may use it for private study, scholarship, research or language learning purposes only