» » »

Virgin Steele, Perfect Man Sions Bass tabs (ver.1)

Artists:  A B C D E F G H I J K L M N O P Q R S T U V W X Y Z # 

Perfect Man Sions Bass tabs (ver.1)

Virgin Steele Tabs
 Rating:
4/5 (4 votes)
Perfect Man Sions lessons Tabs too difficult? Try these video lessons and learn fast
                Standard tuning

|-------|-------|-------|-------|-------|-------|-------|-------|-------|-------|
|-------|-------|-------|-------|-------|-------|-------|-------|-------|-------|
|--0-7--|--0-7--|-0---7-|--0-7--|--0-7--|--0-7--|---0---|--700--|--700--|---7---|
|-------|-------|-------|-------|-------|-------|-------|-------|-------|-------|

|-------|-------|-------|-------|-------|-------|-------|-------|-------|-------|
|-------|-------|-------|-------|-------|-------|-------|-------|-------|-------|
|--0-7--|--0-7--|--0-7--|--0-7--|--0-7--|--0-7--|---0---|---7---|---8---|---7---|
|-------|-------|-------|-------|-------|-------|-------|-------|-------|-------|

|-------|-------|-------|-------|-------|-------|
|-------|-------|-------|-------|-------|-------|
|---0---|---0---|---0---|---0---|---0---|---0---|
|-------|-------|-------|-------|-------|-------|


|-------|-------|-------|-------|-------|-------|-------|-------|-------|-------|
|-------|-------|-------|-------|-------|-------|-------|-------|-------|-------|
|-------|-------|--2/7--|---5---|---0---|---7---|---5---|-------|--00---|--0----|
|--0-0--|--0-0--|-------|-------|-------|-------|-------|---0---|----0--|---0---|

|-------|-------|-------|-------|-------|-------|
|-------|-------|-------|-------|-------|-------|
|---0---|-------|---0---|---2---|---0---|-------|
|-------|---0---|-------|-------|-------|---0---|


|-------|-------|-------|-------|-------|-------|-------|-------|-------|-------|
|-------|-------|-------|-------|-------|-------|-------|-------|-------|-------|
|---7---|-7-0-0-|---7---|-7-0-0-|-------|-0-0-0-|--2-2--|--2-2--|--2-2--|--2-2--|
|-------|-------|-------|-------|--0-0--|-------|-------|-------|-------|-------|



|-------|-------|-------|-------|-------|-------|-------|-------|-------|-------|
|-------|-------|-------|-------|-------|-------|-------|-------|-------|-------|
|-------|-------|---0---|-------|---0---|-------|---0---|---2---|---00--|---00--|
|---0---|---3---|-------|---0---|-------|---0---|-------|-------|--0----|--0----|



|-------|-------|-------|-------|-------|-------|-------|-------|-------|-------|
|-------|-------|-------|-------|-------|-------|-------|-------|-------|-------|
|-------|---0---|--/7---|-------|---0---|---0---|--/7---|---0---|-------|---0---|
|---0---|-------|-------|---0---|-------|-------|-------|-------|--310--|-------|

|-------|-------|-------|-------|-------|-------|-------|-------|
|-------|-------|-------|-------|-------|-------|-------|-------|
|--/7---|---0---|---0---|---0---|--/7---|---00--|---00--|-0-5-7-|
|-------|-------|-------|-------|-------|--0----|--0----|-------|




|-------|-------|-------|-------|-------|-------|-------|-------|-------|-------|
|-------|-------|-------|-------|-------|-------|-------|-------|-------|-------|
|---0---|---0---|-7530--|---0---|---0---|-7530--|---0---|---0---|---0---|---0---|
|-------|-------|-------|-------|-------|-------|-------|-------|-------|-------|

|-------|-------|-------|
|-------|-------|-------|
|---0---|---0---|---0---|
|-------|-------|-------|



|-------|-------|-------|-------|-------|-------|-------|-------|-------|-------|
|-------|-------|-------|-------|-------|-------|-------|-------|-------|-------|
|-------|-------|--2/7--|---5---|---0---|---7---|---5---|-------|--00---|--077--|
|--0-0--|--0-0--|-------|-------|-------|-------|-------|---0---|----0--|-------|

|-------|-------|-------|-------|-------|-------|
|-------|-------|-------|-------|-------|-------|
|---0---|-------|---0---|---2---|---0---|-------|
|-------|---0---|-------|-------|-------|---0---|



|-------|-------|-------|-------|-------|-------|-------|-------|-------|-------|
|-------|-------|-------|-------|-------|-------|-------|-------|-------|-------|
|---0---|--0-0--|-7-0-0-|--0-0--|-2222--|---0---|--0-0--|-7-0-0-|--0-0--|-22-22-|
|-------|-------|-------|-------|-------|-------|-------|-------|-------|-------|

|-------|-------|-------|-------|
|-------|-------|-------|-------|
|---0---|--0-0--|-7-0-0-|---0---|
|-------|-------|-------|-------|



|-------|-------|-------|-------|-------|-------|-------|-------|-------|-------|
|-------|-------|-------|------7|-------|-------|-------|-------|-------|-------|
|-------|-------|-------|/78-10-|10-87--|-------|-------|---0---|---0---|-------|
|---0---|---0---|---0---|-------|-----80|---0---|---0---|-00----|-00----|---0---|

|-------|-------|-------|-------|-------|-------|-------|-------|-------|-------|
|-------|-------|-------|-------|-------|-------|-------|-------|-------|-------|
|-------|-------|-------|-------|-------|-------|-------|---0---|---0---|---0---|
|---0---|---0---|---0---|---0---|-000---|---0---|---0---|-------|-------|-------|

|-------|-------|-------|-------|-------|-------|-------|-------|-------|-------|
|------7|-------|-------|-------|-------|-------|-------|-------|-------|-------|
|/78-10-|10-87--|---0---|---0---|-0/7/0-|---0---|---0---|---0---|---0---|---0---|
|-------|-----80|-------|-------|-------|-------|-------|-------|-------|-------|

|-------|-------|
|-------|-------|
|---0---|---0---|
|-------|-------|



|---|-------|---|-------|------|---|-----|-----|-----|-----|-----|
|---|-------|---|-------|--7---|---|-----|-----|-----|-----|-----|
|-7-|-7-0-0-|-7-|-7-0-0-|78-87-|-0-|-0-0-|-2-2-|-2-2-|-2-2-|-2-2-|
|---|-------|---|-------|-----8|---|-----|-----|-----|-----|-----|



|-------|-------|-------|-------|-------|-------|-------|-------|-------|-------|
|-------|-------|-------|-------|-------|-------|-------|-------|-------|-------|
|-00-0--|-00-0--|-00-0--|-00-0--|----0--|----0--|-00-000|-00-000|-00-000|-00-000|
|-------|-------|-------|-------|--00---|--00---|-------|-------|-------|-------|

|-------|-------|-------|-------|-------|-------|-------|-------|-------|-------|
|-------|-------|-------|-------|-------|-------|-------|-------|-------|-------|
|-00-000|-00-000|-00-000|--00---|--00---|--00---|--00---|--00---|--00---|--00---|
|-------|-------|-------|-------|-------|-------|-------|-------|-------|-------|

|-------|-------|-------|-------|-------|-------|-------|-------|-------|-------|
|-------|-------|-------|-------|-------|-------|-------|-------|-------|-------|
|----0--|----0--|----0--|--00---|--00---|--00---|--00---|--/7---|--00---|--00---|
|--00---|--00---|--00---|-------|-------|-------|-------|-------|-------|-------|

|-------|-------|-------|-------|-------|-------|-------|-------|-------|-------|
|-------|-------|-------|-------|-------|-------|-------|-------|-------|-------|
|--00---|---0---|---0---|---0---|---0---|---0---|---0---|---0---|---0---|---0---|
|-------|-------|-------|-------|-------|-------|-------|-------|-------|-------|

|-------|-------|-------|-------|-------|
|-------|-------|-------|-------|-------|
|---0---|---0---|---0---|---0---|---0---|
|-------|-------|-------|-------|-------|
            
Submit corrections

comments powered by Disqus
↑ Back to top | Virgin Steele Bass for Perfect Man Sions. Lyrics for acoustic guitar and electric guitar. Tablatures and chords are parodies/interpretations of the original songs. You may use it for private study, scholarship, research or language learning purposes only