» » »

I Wake Up Screaming Tabs (ver.1)

Artists:  A B C D E F G H I J K L M N O P Q R S T U V W X Y Z # 

I Wake Up Screaming Tabs (ver.1)

Virgin Steele
Rating:
0/5 (0 votes)

Hard to play? Try these video lessons and learn fast.
                -------------------------------------------------------------------------------
-------------------------------------------------------------------------------


Tuning:E A D G H/B E

INTRO/VERSE/Chorus RIFF To The Intro play 2x. Play first pt of intro twice for the verse
e|------------------------------------------------|----------------------------------------------|
B|------------------------------------------------|----------------------------------------------|
G|------------------------------------------------|----------------------------------------------|
D|------------------------------------------------|----5h7-----------------------5h7------------7|
A|-5h7-0-h5h7--5h7-0-h5h7--5h7-0-h5h7--5h7-0-h5h7-|-5h7---5h7---5h7-----------5h7---5h7---5h7---5|
E|------------------------------------------------|----------5h7---5h7-3h5-3h5---------5h7---5h7-|

Pre Chorus
e|-----------------------|------------------------|----|----------------------|
B|-----------------------|------------------------|----|----------------------|
G|-----------------------|------------------------|-pt1|-5--------------------|
D|-7-----2---2---2p0---2-|--5-----2---2---2p0---2-|----|-5--7p5--7p5--7-------|
A|-5--7--2-0-2-0-2p0-0-2-|--3--5--2-0-2-0-2p0-0-2-|----|-3-----5----5---------|
E|----5------------------|-----3------------------|----|----------------------|

Middle RIFF       x8
e|---------------------------------------------------------------------------|
B|---------------------------------------------------------------------------|
G|---------------------------------------------------------------------------|
D|--4--2--4h5p4-2h4--4--2--5p4-2h4-------------------------------------------|
A|-0--0-------------0--0-----------------------------------------------------|
E|---------------------------------------------------------------------------|

Middle RIFF2   Listen Track And think about yourself
how much times this riff have to play
e|---------------------------------------------------------------------------|
B|---------------------------------------------------------------------------|
G|---------------------------------------------------------------------------|
D|------3------3-------3h5--2-0-------3------3------5------------------------|
A|-0-0-0--0-0-0--0-0-0-----------0-0-0--0-0-0--0-0-0-------------------------|
E|---------------------------------------------------------------------------|
   . . .  . . .  . . .           . . .  . . .  . . .

Middle Riff 3
e|----------------------------|
B|----------------------------|
G|----------------------------|
D|-9--9-9-7-9--9-9-7-5--2--7--|
A|-7--7-7-5-7--7-7-5-3--0--5--|
E|----------------------------|

Whole song playing system

INTRO
VERSE
PRE-CHORUS
CHORUS
VERSE
PRE-CHORUS
CHORUS
MIDDLE RIFF
MIDDLE RIFF 2
SOLO(UPCOMING)
MIDDLE RIFF 3
PRE CHORUS
CHORUS
CHORUS

| /  slide up
| \  slide down
| h  hammer-on
| p  pull-off
| ~  vibrato
| +  harmonic
| x  Mute note
| .  Palm Mute note
===============================================================================
            
Hard to play? Try these video lessons and learn fast. | Correct




comments powered by Disqus
↑ Back to top | Tablatures and chords are parodies/interpretations of the original songs. You may use it for private study, scholarship, research or language learning purposes only