» » »

Virgin Steele, Hellfire Woman Tabs (ver.2)

Artists:  A B C D E F G H I J K L M N O P Q R S T U V W X Y Z # 

Hellfire Woman Tabs (ver.2)

Virgin Steele Tabs
 Rating:
4/5 (4 votes)
Hellfire Woman lessons Tabs too difficult? Try these video lessons and learn fast
                -------------------------------------------------------------------------------
         Hellfire Woman - Virgin Steele
-------------------------------------------------------------------------------
Tuning: eadgbe

InfO: Okay, I haven't tab the solo yet because I have so many other projects to do. But 
have now updated the song. It's more correct. I swear that I am a man of my words I'll 
that solo within a year.

INTRO X2 / riff a

E||-----------------------------|---------------------------|
B||-----------------------------|---------------------------|
G||-----------------------------|---------------------------|
D||--------9------7-------------|--------9------7-----------|
A||--7--7-----10-----10--9--10--|--7--7-----10-----10--9----|
E||--0--0-----------------------|--0--0---------------------|

-----------------------------|--------------------------||
-----------------------------|--15------13--------------||
-----------------------------|--------------------------||
--------9------7-------------|--12------10--------------||
--7--7-----10-----10--9--10--|-----------------------|--||

MAIN RIFF/ riff b [2z

-----------------------------------------------|--------------------------------------------||
-----------------------------------------------|--------------------------------------------||
-----------------------------------------------|--------------------------------------------||
-----------------------------------------------|------------------------5--7--6--5----------||
-----------5s--4--------5s--4-----7------------|-----------5s--4----------------------------||
--0--0--0--3s--2--0--0--3s--2--0--5------------|--0--0--0--3s--2--0--0----------------------||

VERSE RIFF 2x

--------------------------------------------------|---------------------||
--------------------------------------------------|---------------------||
--------------------------------------------------|---------------------||
--------------------------------------------------|--7------5-----------||
-----------5s--4--------5s--4--------5s--4--------|--5------3-----------||
--0--0--0--3s--2--0--0--3s--2--0--0--3s--2--0--0--|---------------------||

-----------------------------------------------|
-----------------------------------------------|
-----------------------------------------------|
-----------------------------------------------|
-----------5s--4--------5s--4-----7------------|
--0--0--0--3s--2--0--0--3s--2--0--5------------|

--------------------------------------------------|---------------------||
--------------------------------------------------|---------------------||
--------------------------------------------------|---------------------||
--------------------------------------------------|--7------5-----------||
-----------5s--4--------5s--4--------5s--4--------|--5------3-----------||
--0--0--0--3s--2--0--0--3s--2--0--0--3s--2--0--0--|---------------------||

-----------------------------------------------|--------------------------------------------||
-----------------------------------------------|--------------------------------------------||
-----------------------------------------------|--------------------------------------------||
-----------------------------------------------|------------------------5--7--6--5----------||
-----------5s--4--------5s--4-----7------------|-----------5s--4----------------------------||
--0--0--0--3s--2--0--0--3s--2--0--5------------|--0--0--0--3s--2--0--0----------------------||


CHORUS RIFF / riff d x2

--------------------|--------------------|---------------------|
--------------------|--------------------|---------------------|
--------------------|--------------------|---------------------|
--4------------4----|-----------4--------|---------------------|
--2------------2----|-----------2--------|-------7------5------|
--------------------|--------------------|-------5------3------|


BEFORE SOLO RIFF / riff e 2x
|----------------------------|----------------------------|
|----------------------------|----------------------------|
|----------------------------|----------------------------|
|----------------4-----------|----------------4-----------|
|--4----------------3--------|--4----------------3--------|
|--2----3--3--3--------------|--2----3--3--3--------------|

----------------------------|-------------------------------||
----------------------------|-------------------------------||
----------------------------|-------------------------------||
----------------4-----------|-------------------------------||
--4----------------3------L-|--2---3--2--0--2--0------------||
--2----3--3--3--------------|---------------------3--2------||


| /  slide up
| \  slide down
| h  hammer-on
| p  pull-off
| ~  vibrato
| +  harmonic
| x  Mute note
===============================================================================
            
Submit corrections

comments powered by Disqus
↑ Back to top | Virgin Steele Tabs for Hellfire Woman. Lyrics for acoustic guitar and electric guitar. Tablatures and chords are parodies/interpretations of the original songs. You may use it for private study, scholarship, research or language learning purposes only