>
 >
Burning Of Rome (Cry For Pompeii)

Burning Of Rome (Cry For Pompeii) Guitar Tabs

Virgin Steele - Burning Of Rome (Cry For Pompeii) chords, tabs, tablatures, lyrics

Guitar lessons | Add/correct | Request | Top 50 tabs Artists:  A B C D E F G H I J K L M N O P Q R S T U V W X Y Z 0-9

Burning Of Rome (Cry For Pompeii) Guitar Tabs – Virgin Steele

CD, Sheet music, Poster

Do you like Burning Of Rome (Cry For Pompeii)? Share with your friends now
Tabs
*****************************************************************
Virgin Steele- The Burning Of Rome (Cry For Pompeii)
*****************************************************************

Intro Riff x16
|--------------------------|--------------------------|
|--------------------------|--------------------------|
|--------------------------|--------------------------|
|--------------------------|--------------------------|
|--2--------5--------7-----|-----2--------5-----0-----|
|-----0--0-----0--0-----0--|--0-----0--0-----0-----0--|

Riff 2 Before verse x4
--------------------------|-----------------------|-------------------------|
--------------------------|-----------------------|-------------------------|
--------------------------|-----------------------|-------------------------|
--------4--------5--------|--4--------7----5------|--------4--------7----2--|
--------2--------3--------|--2--------5----3------|--------2--------5----0--|
--0--0-----0--0-----0--0--|-----0--0--------------|--0--0-----0--0----------|

----------------------|
----------------------|
----------------------|
----------------------|
--------------2-------|
--------3--5-----5~---|

Verse Riff x4

--------------------------|------------------------|
--------------------------|------------------------|
--------------------------|------------------------|
--4--------5-----2-----4--|-----------2--4----4----|
--2--------3-----0-----2--|-----------0--2----2----|
-----0--0-----0-----0-----|--0--0--0---------------|

--------------------------|--------------------------|
--------------------------|--------------------------|
--------------2-----------|--------------0-----------|
--------5--------5-----5--|--------4--------4-----4--|
-----5-----5--------5-----|-----5-----5--------4-----|
--3-----------------------|--2-----------------------|

Pre Chorus x 2
--------------------|-----------------------|
--------------------|-----------------------|
--5------------5----|------5--5--5--5--5----|
--5------------5----|------5--5--5--5--5----|
--3------------3----|------3--3--3--3--3----|
--------------------|-----------------------|
                           .  .  .  .  .

--------------------|-----------------------|
--------------------|-----------------------|
--7------------7----|------7--7--7--7--7----|
--7------------7----|------7--7--7--7--7----|
--5------------5----|------5--5--5--5--5----|
--------------------|-----------------------|
	.      .      .       .      .

chorus

-------------------|-------------------|
-------------------|-------------------|
-------------------|--5----------------|
--2----------------|--5----------------|
--2----------------|--3----------------|
--0----------------|-------------------|

-------------------|-----------------------|-------------------|
-------------------|-----------------------|-------------------|
--7----------------|-----------------------|-------------------|
--7----------------|--2--------2--2--2--2--|--2----------------|
--5----------------|--2--------2--2--2--2--|--2----------------|
-------------------|--0--------0--0--0--0--|--0----------------|
                               .  .  .  .
-------------------|-------------------|-----------------------|
-------------------|-------------------|-----------------------|
--5----------------|--7----------------|-----------------------|
--5----------------|--7----------------|--2--------2--2--2--2--|
--3----------------|--5----------------|--2--------2--2--2--2--|
-------------------|-------------------|--0--------0--0--0--0--|
                                                   .  .  .  .
-------------------|-------------------|-------------------|
-------------------|-------------------|-------------------|
--9----------------|--5----------------|--7----------------|
--9----------------|--5----------------|--7----------------|
--7----------------|--3----------------|--5----------------|
--0----------------|-------------------|-------------------|

-----------------------|-------------------|-------------------|
-----------------------|-------------------|-------------------|
-----------------------|--5----------------|--2----------------|
--2--------2--2--2--2--|--5----------------|--2----------------|
--2--------2--2--2--2--|--3----------------|--0----------------|
--0--------0--0--0--0--|-------------------|-------------------|
           .  .  .  .
-------------------|-------------------|--------------------------|
-------------------|-------------------|--------------------------|
--7----------------|--4----------------|--7--7--7--7--7--7--7--7--|
--7----------------|--4----------------|--7--7--7--7--7--7--7--7--|
--5----------------|--2----------------|--5--5--5--5--5--5--5--5--|
-------------------|-------------------|--------------------------|
                                          .  .  .  .  .  .  .  .


guitar solo


------------------15----|--10~---------------|-------------------------10--12--|
--13------15------------|--------------------|-------------10--12--13----------|
------------------------|--------------------|--9--10--12----------------------|
------------------------|--------------------|---------------------------------|
------------------------|--------------------|---------------------------------|
------------------------|--------------------|---------------------------------|

--12--15--12~-----------|----------------------|------10--12----10~-------|
------------------------|--10~-----------12----|--13----------------------|
------------------------|----------------------|--------------------------|
------------------------|----------------------|--------------------------|
------------------------|----------------------|--------------------------|
------------------------|----------------------|--------------------------|

--10~-----------10-12-10--|--------------------|--15b-----15b---------|
--------------------------|--12~---------------|----------------------|
--------------------------|--------------------|----------------------|
--------------------------|--------------------|----------------------|
--------------------------|--------------------|----------------------|
--------------------------|--------------------|----------------------|

----------17----19----20----|--19~---------------|------------------|
----------------------------|--------------------|------------------|
----------------------------|--------------------|------------------|
----------------------------|--------------------|------------------|
----------------------------|--------------------|------------------|
----------------------------|--------------------|------------------|


--15~-------15~-------|--------------10~---|--10~-------------10----|
----------------------|--------------------|---------------------13-|
----------------------|--------------------|------------------------|
----------------------|--------------------|------------------------|
----------------------|--------------------|------------------------|
----------------------|--------------------|------------------------|

--------------------|--------------------|----------------------13----|
--12~---------------|--13~---------------|----------15----17----------|
--------------------|--------------------|----------------------------|
--------------------|--------------------|----------------------------|
--------------------|--------------------|----------------------------|
--------------------|--------------------|----------------------------|

--12~---------------|--------------------|--------------------|
--------------------|--12~---------------|--13~---------------|
--------------------|--------------------|--------------------|
--------------------|--------------------|--------------------|
--------------------|--------------------|--------------------|
--------------------|--------------------|--------------------|

----------------------13----|--12~---------------|--20~---------------|
----------15----17----------|--------------------|--------------------|
----------------------------|--------------------|--------------------|
----------------------------|--------------------|--------------------|
----------------------------|--------------------|--------------------|
----------------------------|--------------------|--------------------|

-----------------------|---------------------------|----------------------|
--11b------------------|----------13---------------|--11~-----9--9~-------|
----------12--9~-------|----------------12----9----|----------------------|
-----------------------|---------------------------|----------------------|
-----------------------|---------------------------|----------------------|
-----------------------|---------------------------|----------------------|

---------------------------|------------------------|
----------9----------------|------------------------|
---------------12----------|--12~-----10--10~-------|
---------------------13----|------------------------|
---------------------------|------------------------|
---------------------------|------------------------|

--------------------------------|-------------------|----------------------|
--------------------------------|-------------------|----------------------|
----------10----12----10-12-10--|--8~---------------|----------------------|
--------------------------------|-------------------|--10~-------12~-------|
--------------------------------|-------------------|----------------------|
--------------------------------|-------------------|----------------------|

-----------------------|---------------------------|----------------------|
--11b------------------|----------13---------------|--11~-----9--9~-------|
----------12--9~-------|----------------12----9----|----------------------|
-----------------------|---------------------------|----------------------|
-----------------------|---------------------------|----------------------|
-----------------------|---------------------------|----------------------|

---------------------------|------------------------|
----------9----------------|------------------------|
---------------12----------|--12~-----10--10~-------|
---------------------13----|------------------------|
---------------------------|------------------------|
---------------------------|------------------------|

--------------------------------|-------------------|----------------------|
--------------------------------|-------------------|----------------------|
----------10----12----10-12-10--|--8~---------------|----------------------|
--------------------------------|-------------------|--10~-------12~-------|
--------------------------------|-------------------|----------------------|
--------------------------------|-------------------|----------------------|


-------------------------------------------------|--11~---------------|
----------------------------------------------9--|--------------------|
--------------10--12--13--15--13--12--10--12-----|--------------------|
--10--12--13-------------------------------------|--------------------|
-------------------------------------------------|--------------------|
-------------------------------------------------|--------------------|

----------13--15--13------------------13--15--16--|--15~---------------|
--13--15--------------15--12--13--15--------------|--------------------|
--------------------------------------------------|--------------------|
--------------------------------------------------|--------------------|
--------------------------------------------------|--------------------|
--------------------------------------------------|--------------------|

--19-20-19-17-19-20-19-17-19-20-19-17-19-20-19-17-|--19~---------------|
--------------------------------------------------|--------------------|
--------------------------------------------------|--------------------|
--------------------------------------------------|--------------------|
--------------------------------------------------|--------------------|
--------------------------------------------------|--------------------|



	WHOLE PLAYING ORDER


INTRO RIFF
RIFF BEFORE VERSE
VERSE
PRE CHORUS
VERSE
PRE CHORUS
CHORUS
RIFF BEFORE VERSE
GUITAR SOLO
VERSE
PRE CHORUS
CHORUS
RIFF BEFORE VERSE
INTRO RIFF


| /  slide up
| \  slide down
| h  hammer-on
| p  pull-off
| ~  vibrato
| +  harmonic
| . Mute note
| X SCRACH
===============================================





Comments


Popular Virgin Steele tabs & chords
Transfiguration Bass Tabs
A Cry In The Night Chords
Forever Will I Roam Chords
Gate Of Kings Chords
God Of Our Sorrows Chords
When The Legends Die Chords
Hellfire Woman Tabs
Hellfire Woman 1 Tabs
Rising Unchained Intro Tabs
We Tule The Night Tabs


Song lyrics



↑ Back to top | Tablatures and chords are parodies/interpretations of the original songs. You may use it for private study, scholarship, research or language learning purposes only
© 2014 AZChords.com Contact us | Privacy policy | DMCA | Add/correct tabs | Request tabs | Top 50 tabs