» » »

This Is Him (Hurricane Song) Tabs (ver.1)

Artists:  A B C D E F G H I J K L M N O P Q R S T U V W X Y Z # 

This Is Him (Hurricane Song) Tabs (ver.1)

Virginia Coalition
Rating:
0/5 (0 votes)

Hard to play? Try these video lessons and learn fast.
                Intro/Verse
E----1------3------------------------------------|
B----1------3-------1-------1--------------------|
G----2--------------2-------0--------------------|
D----3--------------3-------2--------------------|
A----3------2---------------3--------------------|
E----1------3------------------------------------|

its all just picking these chords, and i'm too lazy to tab it out exactly, and it sounds 
just playing the chords. Just listen to the song for rhythm.


Chorus
E------------5--------1-------3-------------------|
B----3-------5--------1-------3-------------------|
G----4-------5--------2---------------------------|
D----5-------5--------3---------------------------|
A------------7--------3-------2-------------------|
E------------5--------1-------3-------------------|


End Jam
E--------------------------------------------------------|
B--------------------------------------------------------|
G--8--7-----------7/8---7---5h7p5--------5---------------|
D---------7---8---------------------8---------8---7------|
A--------------------------------------------------------|
E--------------------------------------------------------|
and then don't hesitate back into the beginning 8 on the G, and it just repeats.
            
Hard to play? Try these video lessons and learn fast. | Correct




comments powered by Disqus
↑ Back to top | Tablatures and chords are parodies/interpretations of the original songs. You may use it for private study, scholarship, research or language learning purposes only