» » »

This Is Him Huricane Song Tabs (ver.1)

Artists:  A B C D E F G H I J K L M N O P Q R S T U V W X Y Z # 

This Is Him Huricane Song Tabs (ver.1)

Virginia Coalition
Rating:
0/5 (0 votes)

Hard to play? Try these video lessons and learn fast.
                

Verse:
            G           F        C          repeat
e|--------------------------------------------------------|
B|-1--1--------0--------1---1----1------------------------|
G|-0--0--------0--------0h2-0----0------------------------|
D|-2-----------0-----3--3---3-------2---------------------|
A|-----------2-------------------3------------------------|
E|-1------3-----------------------------------------------|
   I caught the sound of a distant word...

Chorus:

          Am             F    G          repeat
e|--------------------------------------------------------|
B|---8----5--------------1----3---------------------------|
G|---7----5--------------2----4---------------------------|
D|--------------------------------------------------------|
A|---5----------------------------------------------------|
E|--------5--------------1----3---------------------------|
           This is me...

Solo:
                                   
e|--------------------------------------------------------|
B|--5-5------5h6-5--3h5r3---3-----------------------------|
G|--5-5-4-5--5---5--0-----5-0-5-4-------------------------|
D|------5-5-----------------------------------------------|
A|--------------------------------------------------------|
E|--------------------------------------------------------|


e|--------------------------------------------------------|
B|--5h6-5-------5h6-5--3h5r3---3--------------------------|
G|--5---5--4-5--5---5--0-----5-0-5-4----------------------|
D|---------5-5--------------------------------------------|
A|--------------------------------------------------------|


e|--------------------------------------------------------|
B|--5h6-5-------6-6--5-5--3-3-----------------------------|
G|--5---5--4-5--5-5--5-5--0-0--5--------------------------|
D|---------5-5-----------------5--------------------------|
A|--------------------------------------------------------|
E|--------------------------------------------------------|
E|--------------------------------------------------------|
            
Hard to play? Try these video lessons and learn fast. | Correct




comments powered by Disqus
↑ Back to top | Tablatures and chords are parodies/interpretations of the original songs. You may use it for private study, scholarship, research or language learning purposes only