>
 >
Lonely Cowboy

Lonely Cowboy Guitar Tabs

Virginia Coalition - Lonely Cowboy chords, tabs, tablatures, lyrics

Guitar lessons | Add/correct | Request | Top 50 tabs Artists:  A B C D E F G H I J K L M N O P Q R S T U V W X Y Z 0-9

Lonely Cowboy Guitar Tabs – Virginia Coalition

CD, Sheet music, Poster

Do you like Lonely Cowboy? Share with your friends now
Tabs

Intro riff/verse:

    G     D           C     D
E|------------2-3-2--------------------------------------------|
B|------------3-3-3------1----3--------------------------------|
G|-----0----2------------0----2----5-3/4----------------------|
D|---0----0------------2----0------5-4/5----------------------|
A|-------------------3-----------------------------------------|
E|-3-----------------------------------------------------------|

G         D                     C            D
I dug my grave but there were blanks in the gun
G         D        C    D                     G
Sitting beside you I swore you were the only one
          D      C                    D
Goodbye friends true love and happy endings
G     D       C     D    Am
It's all the same

Chorus:

D          G            D                Am
Forgive me I must have just been lonely baby
D          G            D                     Am
Forgive me I must have just thought I was in love
D                    G   D  Am7
Forgive me but don't ask me why
               D             G   D  C  D
My fingers crossed until I die


G         D       C            D       G
And the light shining in your eyes
      D            C      D
It changed me for good
                      G
And that's a while darling
D              C
That's what I call you...
D              G                D     Am
That's what I call you when I dream


Chorus:

D          G            D                Am
Forgive me I must have just been lonely baby
D          G            D                     Am
Forgive me I must have just thought I was in love
D                    G   D  Am7
Forgive me but don't ask me why
               D             G   D  C  D
My fingers crossed until I die

G     D                   C            D
No obstacles between my heart and my words
G         D          G           C
My lips the great liaison to my soul


G                  D            C      D
Girl you make me feel like a lonely cowboy
G      D       C              D
Alone on the range late at night
G             D                 C      D
You make me feel just like a lonely cowboy

G
But it's alright
D
It's alright
C
It's alright
D
It's all right


Solo:

E|----------------------------------------------------------|
B|----------------------------------------------------------|
G|-------12-14b16-16r14--12------12-----------------------|
D|-12h14-----------------------14------14-------------------|
A|----------------------------------------------------------|
E|----------------------------------------------------------|

                                                                                         
                        
E|------------------------------------------------------~---|
B|-------12-15-12------------12-15-12------------12-15-12---|
G|-14b16--------------14b16---------------14b16-------------|
D|----------------------------------------------------------|
A|----------------------------------------------------------|
E|----------------------------------------------------------|

E|----------------------------------------------------------|
B|----------------------------------------------------------|
G|----12h14p12----------------------------------------------|
D|--------------14---12---/9---7\---------------------------|
A|----------------------------------------------------------|
E|----------------------------------------------------------|

E|----------------------------------------------------------|
B|----------------------------------------------------------|
G|-/9--7--5------------------/9--7--5-----------------------|
D|-----------/9--7--5--5---5----------/9--7--7--5--5--------|
A|----------------------------------------------------------|
E|----------------------------------------------------------|


E|----------------------------------------------------------|
B|----------------------------------------------------------|
G|---/9--7--5-------------------/9--7--5--------------------|
D|-5-----------/9--7--5--5----5------------/9--7--5---------|
A|----------------------------------------------------------|
E|----------------------------------------------------------|





Comments


Popular Virginia Coalition tabs & chords
By And By Tabs
Green And Grey Tabs
Green And Grey Intro Tabs
Mason Dixon Tabs
Nicole's Song Tabs
This Is Him (Hurricane Song) Tabs
This Is Him Huricane Song Tabs
Voyager 2 Tabs


Song lyrics



↑ Back to top | Tablatures and chords are parodies/interpretations of the original songs. You may use it for private study, scholarship, research or language learning purposes only
© 2014 AZChords.com Contact us | Privacy policy | DMCA | Add/correct tabs | Request tabs | Top 50 tabs