» » »

Teenage Kicks Tabs (ver.1)

Artists:  A B C D E F G H I J K L M N O P Q R S T U V W X Y Z # 

Teenage Kicks Tabs (ver.1)

Violent Delight
Rating:
0/5 (0 votes)

Hard to play? Try these video lessons and learn fast.
                Violent Delight - Teenage Kicks (undertones cover)

Stanard Drop D - e, b, g, d, a, D


Riff 1

e|------------------------------------------------
b|------------------------------------------------
g|-7777777/5/4444444/5----------------------------
d|-7777777/5/4444444/5----------------------------
a|-5555555/3/2222222/3----------------------------
D|------------------------------------------------


Riff 2 (heavy palm mute throughout)

e|------------------------------------------------
b|------------------------------------------------
g|-7777777/5/4444444/5/7--------------------------
d|-7777777/5/4444444/5/7--------------------------
a|-5555555/3/2222222/3/5--------------------------
D|------------------------------------------------

Riff 3 (heavy palm mute, leave last chord open nd ringin)

e|------------------------------------------------
b|------------------------------------------------
g|------------------------------------------------
d|-55555555555/7777777777~------------------------
a|-55555555555/7777777777~------------------------
D|-55555555555/7777777777~------------------------

Riff 4 (solo)

e|------------------------------------------------
b|------------------------------------------------
g|-7777777/99----------99/7-----------------------
d|-7777777/**-9999999/-xx/7-----------------------
a|-5555555/77-9999999/-77/5-----------------------
D|------------9999999/----------------------------

Riff 5 (solo 2)

e|------------------------------------------------
b|------------------------------------------------
g|-77---------------------------------------------
d|-77-------99------------------------------------
a|-55-77797-99-77797------------------------------
D|----------99------------------------------------

Riff 6 (heavy palm mute D5 chord)

e|------------------------------------------------
b|------------------------------------------------
g|-77777777777777------------7/5/4444444----------
d|-77777777777777------------7/5/4444444----------
a|-55555555555555------------5/3/2222222----------
D|------------------------------------------------

Riff 7

e|------------------------------------------------
b|------------------------------------------------
g|-7777777/5/4444444/5/7--------------------------
d|-7777777/5/4444444/5/7--------------------------
a|-5555555/3/2222222/3/5--------------------------
D|------------------------------------------------

Riff 8

e|------------------------------------------------
b|------------------------------------------------
g|------------------------------------------------
d|-55555555555/7777777777~------------------------
a|-55555555555/7777777777~------------------------
D|-55555555555/7777777777~------------------------

Riff 9

e|------------------------------------------------
b|------------------------------------------------
g|-7777777/5/4444444/5/7--------------------------
d|-7777777/5/4444444/5/7--------------------------
a|-5555555/3/2222222/3/5--------------------------
D|------------------------------------------------

Riff 10

e|------------------------------------------------
b|------------------------------------------------
g|------------------------------------------------
d|-55555555555/7777777777-------------------------
a|-55555555555/7777777777-------------------------
D|-55555555555/7777777777-------------------------


Its not too hard to figure the order out all you have to do is listen to the song and it should come
            
Hard to play? Try these video lessons and learn fast. | Correct




comments powered by Disqus
↑ Back to top | Tablatures and chords are parodies/interpretations of the original songs. You may use it for private study, scholarship, research or language learning purposes only