» » »

Violent Delight, Secret Smile Tabs (ver.3)

Artists:  A B C D E F G H I J K L M N O P Q R S T U V W X Y Z # 

Secret Smile Tabs (ver.3)

Violent Delight Tabs
 Rating:
4/5 (4 votes)
Secret Smile lessons Tabs too difficult? Try these video lessons and learn fast
1
                Hi this tab is right i have spent 1month on it so hope u like it


Tunin Drop 1/2 step then drop D

e-b-g-D-A-D
Verse
e-----------------------
b-----------------------
g-----------------------
D----4---4----4---------
A----4---4----4---------
D----4---4----4---------
(listen for song for how many times played)

Chorus:
e-----------------------------
b-----------------------------
g-----------------------------
D---4--6-6--5-7---2--4-4---4--
A---4--4-4--7-5---2--2-2---4--
D---4-------------2--------4--
(listen for when and how many times through)

Bridge:

e----------------
b----------------
g----------------
D---9---4--4-----
A---7---2--4-----
D----------4-----

(listen for how many times through)


Part when he PM's it

PM
e-------
b-------
g-------
D---4---
A---4---
D---4---


and there you go you just need to do it in order and how many times have fun and thanks for VD Tom for writin the G-tar to this song
            
Submit corrections

comments powered by Disqus
↑ Back to top | Violent Delight Tabs for Secret Smile. Lyrics for acoustic guitar and electric guitar. 1 Tablatures and chords are parodies/interpretations of the original songs. You may use it for private study, scholarship, research or language learning purposes only