» » »

Violent Delight, Secret Smile Tabs (ver.2)

Artists:  A B C D E F G H I J K L M N O P Q R S T U V W X Y Z # 

Secret Smile Tabs (ver.2)

Violent Delight Tabs
Rating:
0/5 (0 votes)
Secret Smile lessons Tabs too difficult? Try these video lessons and learn fast
                I havent got enough time to tab all, so i'll finish it off later

standard tuning
Intro/chorus
E ---------------------------------------------
b ---------------------------------------------
g -11-11---------------------------------------
d -11-11--11-11--12-12-12-12--2-2-2-2--4-4-4-4-
a -9--9---11-11--12-12-12-12--2-2-0-0--4-4-4-4-
e --------9--9---10-10-10-10--0-0-0-0--2-2-2-2-

verse
E------------------------------
b------------------------------
g------------------------------
d-4--4--4--4-4--4--4--4--4-4-4-
a-4--4--4--4-4--4--4--4--4-4-4-
e-2--2--2--2-2--2--2--2--2-2-2-

E----------------------------------------------------
b----------------------------------------------------
g-10-10-10-10----------------------------------------
d-10-10-10-10-10-10-10-10-11-11-11-11-11-11-11-11----
a-8--8--8--8--10-10-10-10-11-11-11-11-11-11-11-11----
e-------------8--8--8--8--9--9--9--9--9--9--9--9-----


E----------------------------------------------------------------
b----------------------------------------------------------------
g-10-10-10-10----------------------------------------------------
d-10-10-10-10-10-10-10-10-12-12-12-12-12-12-12-12-12-12-12-12----
a-8--8--8--8--10-10-10-10-12-12-12-12-12-12-12-12-12-12-12-12----
e-------------8--8--8--8--10-10-10-10-10-10-10-10-10-10-10-10----



E----------------------------------------------------
b----------------------------------------------------
g----------------------------------------------------
d----------------------------------------------------
a----------------------------------------------------
e-2-2-2-2-2-2-2-2-2-2-2-2-2-2-2-2-2--ect-------------


(this is my first tab so can u please rate it )
            

comments powered by Disqus
↑ Back to top | Violent Delight Tabs for Secret Smile. Lyrics for acoustic guitar and electric guitar. Tablatures and chords are parodies/interpretations of the original songs. You may use it for private study, scholarship, research or language learning purposes only