» » »

Secret Smile Tabs (ver.1)

Artists:  A B C D E F G H I J K L M N O P Q R S T U V W X Y Z # 

Secret Smile Tabs (ver.1)

Violent Delight
Rating:
0/5 (0 votes)

Hard to play? Try these video lessons and learn fast.
                Tuning: D A D G B E

chorus/intro
E|--------------------------------
B|--------------------------------
G|-----6-6-6-7-7-7-----4-4--------
D|-4-4-6-6-6-7-7-7-2-2-4-4-4-4-4-4
A|-4-4-4-4-4-5-5-5-2-2-2-2-4-4-4-4
D|-4-4-------------2-2-----4-4-4-4

Verse 1:
e|--------------------
B|--------------------
G|--------------------
D|-4-4-|-4-4-|-4-4-6-7
A|-4-4-|-4-4-|-4-4-6-7
D|-4-4-|-4-4-|-4-4-6-7

Verse Con't
e|---------------------
B|---------------------
G|---------------------
D|---4-4-4-4-4-4-4-4-4-
A|---4-4-4-4-4-4-4-4-4-
D|---4-4-4-4-4-4-4-4-4-
s.pm|========    =====

Chorus:

Verse 2:
e|--------------------
B|--------------------
G|--------------------
D|-4-4-|-4-4-|-4-4-6-7
A|-4-4-|-4-4-|-4-4-6-7
D|-4-4-|-4-4-|-4-4-6-7

Verse 2 Con't:
e|-----------
B|-----------
G|-----------
D|--4-4-4/7\-
A|--4-4-4/7\-
D|--4-4-4/7\- Listen to the song and you`ll Get it.
S.PM===

Bridge:
e|-------------------------
B|-------------------------
G|-9-9-9-9-4-4-4-4-6-6-6-6-
D|-9-9-9-9-4-4-4-4-6-6-6-6-
A|-7-7-7-7-2-2-2-2-4-4-4-4-
D|-------------------------

Interlude:
e|---------------
B|---------------
G|---------------
D|-4-4-4-4-4-4-4-
A|-4-4-4-4-4-4-4-
D|-4-4-4-4-4-4-4-
PM =============
            
Hard to play? Try these video lessons and learn fast. | Correct




comments powered by Disqus
↑ Back to top | Tablatures and chords are parodies/interpretations of the original songs. You may use it for private study, scholarship, research or language learning purposes only