» » »

Violent Delight, Like Them Tabs (ver.1)

Artists:  A B C D E F G H I J K L M N O P Q R S T U V W X Y Z # 

Like Them Tabs (ver.1)

Violent Delight Tabs
 Rating:
4/5 (4 votes)
Like Them lessons Tabs too difficult? Try these video lessons and learn fast
                This is about 90% correct, there was sum bits i was unsure about.
It sounds close enough to me, so play and enjoy, its a great song.

Intro/Interlude
e|-------------------------------
B|-------------------------------
G|-------------------------------
D|-9-9-9-9-7-7--7-9-9-9-9-7-9----
A|-9-9-9-9-7-7--7-9-9-9-9-7-9----
D|-9-9-9-9-7-7--7-9-9-9-9-7-9----

Verse Part 1
e|-------------------------------------------------
B|-------------------------------------------------
G|--------------------------------------9-9-9------
D|-7-7-7-7--7-7-10-10-10-9-----5-5-5-5--9-9-9------
A|-7-7-7-7-----------------10--5-5-5-5--7-7-7------
D|-7-7-7-7---------------------5-5-5-5-------------
Verse Part 2
e|---------------------------------------
B|---------------------------------------
G|---------------------------------------
D|-7-7-7-7--7-7-10-10-10-9-----5-5-5-5---
A|-7-7-7-7-----------------10--5-5-5-5---
D|-7-7-7-7---------------------5-5-5-5---
Verse Part 3
e|---------------------------------------------------
B|---------------------------------------------------
G|---------------------------------------------------
D|-7-7-7-7--7-7-10-10-10-9-----5-5-5-5--10-10-9-10---
A|-7-7-7-7-----------------10--5-5-5-5--10-10-9-10---
D|-7-7-7-7---------------------5-5-5-5--10-10-9-10---

Chorus
e|------------------------------------------
B|------------------------------------------
G|-------------------5-5-5-5-5--4-4--3-3-3--
D|-7-7-7-7--2-2-2-2--5-5-5-5-5--4-4--3-3-3--
A|-7-7-7-7--2-2-2-2--3-3-3-3-3--2-2--1-1-1--
D|-7-7-7-7--2-2-2-2-------------------------

Interlude End
e|------------
B|------------
G|------------
D|-7~---10~---
A|-7~---10~---
D|-7~---10~---


Intro/Interlude x 4
Verse Part 1 x 1
Verse Part 2 x 1
Verse Part 1 x 1
Verse Part 2 x 1
Verse Part 3 x 1
Chorus x 2
Verse Part 1 x 1
Verse Part 2 x 1
Verse Part 1 x 1
Verse Part 2 x 1
Verse Part 3 x 1
Chorus x 2
Intro/Interlude x 8
Interlude End x 2
Verse Part 1 x 1
Verse Part 2 x 1
Verse Part 1 x 1
Verse Part 2 x 1
Verse Part 3 x 1
Chorus x 4
Intro/Interlude x 4
            
Submit corrections

comments powered by Disqus
↑ Back to top | Violent Delight Tabs for Like Them. Lyrics for acoustic guitar and electric guitar. Tablatures and chords are parodies/interpretations of the original songs. You may use it for private study, scholarship, research or language learning purposes only