» » »

Violent Delight, Jump Jump Jump Tabs (ver.1)

Artists:  A B C D E F G H I J K L M N O P Q R S T U V W X Y Z # 

Jump Jump Jump Tabs (ver.1)

Violent Delight Tabs
Rating:
0/5 (0 votes)
Hard to play? Try these video lessons and learn fast.
                Song Track:11

hey im not 100% sure on this tab but it still sounds a bit like it, im getting
a mate to check it out for me...vd-rock

intro

D|------0113013----0113013----------------
A|--33--0113013--3-0113013----------------
D|--55--0113013--5-0113013----------------
G|--55-----------5------------------------
B|----------------------------------------
e|----------------------------------------

verse

D|--------------------------------
A|-55---55---55---101010109999----
D|-77---77---77---8-8-8-8-7777----  X 2
G|----------------8-8-8-8-7777----
B|--------------------------------
e|--------------------------------
            

comments powered by Disqus
↑ Back to top | Violent Delight Tabs for Jump Jump Jump. Lyrics for acoustic guitar and electric guitar. Tablatures and chords are parodies/interpretations of the original songs. You may use it for private study, scholarship, research or language learning purposes only